Tabulature for "City Beneath the Surface"
Off the album "The Dungeons are Calling"
Written by Savatage

Transcribed by Daryl J. Bugbee bugbeed@db.erau.edu



E-]----------------------------------------------------------------------------|
B-]----------------------------------------------------------------------------|
G-]------------------------------ -Synth Intro- -------------------------------|
D-]----------------------------------------------------------------------------|
A-]----------------------------------------------------------------------------|
D-]----------------------------------------------------------------------------|

                                                                    three times
E-]----------------------------|-----------------------------------------------|
B-]----------------------------|-----------------------------------------------|
G-]-----5-\-7--7--7------------|o----5---5--5-\-7--7--7-----------------------o|
D-]-----5-\-7--7--7---6---5----|o----5---5--5-\-7--7--7--------6----5---------o|
A-]-----3-\-5--5--5---6---5----|-----3---3--3-\-5--5--5--------6----5----------|
D-]-------------------6---5----|-------------------------------6----5----------|


E-]-------------t-h-h--t--p--p-p-h-h--t--p--p-p-h-h--t--p--p-p-h-h--t--p--p-p--|
B-]-----------15^0^8^10^15^10^8^0^8^10^15^10^8^0^8^10^15^10^8^0^8^10^15^10^8^0-|
G-]--5--5--7-------------------------------------------------------------------|
D-]--5--5--7-------------------------------------------------------------------|
A-]--3--3--5-------------------------------------------------------------------|
D-]----------------------------------------------------------------------------|


E-]---h-h--t--p--p-p-h-h--t--p--p-p-h-h--t--p--p-p-h-h--t----------------------|
B-]---^8^10^15^10^8^0^8^10^15^10^8^0^8^10^15^10^8^0^8^10^15--------------------|
G-]----------------------------------------------------------------------------|
D-]----------------------------------------------------------------------------|
A-]----------------------------------------------------------------------------|
D-]---------------------------------------------------------------12-\---------|

                                                                     four times
E-]----------------------------------------------------------------------------|
B-]----------------------------------------------------------------------------|
G-]o---------------7------------6-----------5---------------------------------o|
D-]o---------------7------------6-----------5-------------6------5------------o|
A-]----------------5------------4-----------3-------------6------5-------------|
D-]---------0--0--------0--0--------0--0--------0--0------6------5-------------|

    Ah.........................................................................
                                                                    three times
E-]----------------------------------------------------------------------------|
B-]----------------------------------------------------------------------------|
G-]o---------------7------------6-----------5---------------------------------o|
D-]o---------------7------------6-----------5-------------6------5------------o|
A-]----------------5------------4-----------3-------------6------5-------------|
D-]---------0--0--------0--0--------0--0--------0--0------6------5-------------|


E-]----------------------------------------------------------------------------|
B-]----------------------------------------------------------------------------|
G-]------------------7-----------7-----------7----------7------------7---------|
D-]------------------7-----------7-----------7----------7------------7---------|
A-]------------------5-----------5-----------5----------5------------5---------|
D-]---------0--0-----------0-----------0-----------0----------0----------------|

        Hi welcome to hell                                          eight times
E-]----------------------------------------------------------------------------|
B-]----------------------------------------------------------------------------|
G-]o---------------7------------6-----------5---------------------------------o|
D-]o---------------7------------6-----------5-------------6------5------------o|
A-]----------------5------------4-----------3-------------6------5-------------|
D-]---------0--0--------0--0--------0--0--------0--0------6------5-------------|
        Your are all here 
        For this is where you must dwell
        Sinners and cheats
        Sit here with Satan
        And have all your spirits meet

      Oh city beneath the city above how you survive on evil and blood
E-]----------------------------------------------------------------------------|
B-]----------------------------------------------------------------------------|
G-]----10--------------------5---------------------8--------------------4------|
D-]----10--------------------5---------------------8--------------------4------|
A-]-----8--------------------3---------------------6--------------------2------|
D-]----------------------------------------------------------------------------|


E-]----------------------------------------------------------------------------|
B-]----------------------------------------------------------------------------|
G-]o---------------7------------6-----------5---------------------------------o|
D-]o---------------7------------6-----------5-------------6------5------------o|
A-]----------------5------------4-----------3-------------6------5-------------|
D-]---------0--0--------0--0--------0--0--------0--0------6------5-------------|

      You breathers in this space  you can never leave this place
E-]----------------------------------------------------------------------------|
B-]----------------------------------------------------------------------------|
G-]----10--------------------5---------------------8--------------------4------|
D-]----10--------------------5---------------------8--------------------4------|
A-]-----8--------------------3---------------------6--------------------2------|
D-]----------------------------------------------------------------------------|

E-]----------------------------------------------------------------------------|
B-]----------------------------------------------------------------------------|
G-]-------7-------------5--------------7-----7-------------5-----------7-------|
D-]-------7-------------5--------------7-----7-------------5-----------7-------|
A-]-------5-------------3--------------5-----5-------------3-----------5-------|
D-]-------------0--0-----------0--0----------------0--0---------0--0-----------|


         Die we all must die                                        eight times
E-]----------------------------------------------------------------------------|
B-]----------------------------------------------------------------------------|
G-]o---------------7------------6-----------5---------------------------------o|
D-]o---------------7------------6-----------5-------------6------5------------o|
A-]----------------5------------4-----------3-------------6------5-------------|
D-]---------0--0--------0--0--------0--0--------0--0------6------5-------------|
         How will you face it 
         When you bend to your knees and cry
         Burn like witches burn
         When will you sinners believe
         That it's your time to learn?

     Oh city beneath the surface above   how you survive on evil and blood
E-]----------------------------------------------------------------------------|
B-]----------------------------------------------------------------------------|
G-]----10--------------------5---------------------8--------------------4------|
D-]----10--------------------5---------------------8--------------------4------|
A-]-----8--------------------3---------------------6--------------------2------|
D-]----------------------------------------------------------------------------|


E-]----------------------------------------------------------------------------|
B-]----------------------------------------------------------------------------|
G-]o---------------7------------6-----------5---------------------------------o|
D-]o---------------7------------6-----------5-------------6------5------------o|
A-]----------------5------------4-----------3-------------6------5-------------|
D-]---------0--0--------0--0--------0--0--------0--0------6------5-------------|

     You breathers in this space    you can never leave this place
E-]----------------------------------------------------------------------------|
B-]----------------------------------------------------------------------------|
G-]----10--------------------5---------------------8--------------------4------|
D-]----10--------------------5---------------------8--------------------4------|
A-]-----8--------------------3---------------------6--------------------2------|
D-]----------------------------------------------------------------------------|

                                                                     four times
E-]----------------------------------------------------------------------------|
B-]----------------------------------------------------------------------------|
G-]o--------------------------------------------------------------------------o|
D-]o-----------------5-----------------------------------h-p-h----------------o|
A-]----------0--0--------0--0----5---0--0----6---0--0---4^5^4^5----0-----------|
D-]----------------------------------------------------------------------------|

    solo-->                                                         three times
E-]----------------------------------------------------------------------------|
B-]----------------------------------------------------------------------------|
G-]o------------5--------5--------5---------5---------------5-----------------o|
D-]o------------5--------5--------5---------5---------------5-----------------o|
A-]-------------3--------3--------3---------3-------0--2----3------------------|
D-]-------0--0-----0--0-----0--0-----0--0--------------------------------------|

E-]----------------------------------------------------------------------------|
B-]----------------------------------------------------------------------------|
G-]-------------5--------5--------5---------5------------2---------3-----------|
D-]-------------5--------5--------5---------5------------2---------3-----------|
A-]-------------3--------3--------3---------3------------0---------1-----------|
D-]-------0--0-----0--0-----0--0-----0--0--------------------------------------|

E-]----------------------------------------------------------------------------|
B-]----------------------------------------------------------------------------|
G-]o---------------7------------6-----------5---------------------------------o|
D-]o---------------7------------6-----------5-------------6------5------------o|
A-]----------------5------------4-----------3-------------6------5-------------|
D-]---------0--0--------0--0--------0--0--------0--0------6------5-------------|

                                                                    three times
E-]----------------------------------------------------------------------------|
B-]----------------------------------------------------------------------------|
G-]o------------5--------5--------5---------5---------------5-----------------o|
D-]o------------5--------5--------5---------5---------------5-----------------o|
A-]-------------3--------3--------3---------3-------0--2----3------------------|
D-]-------0--0-----0--0-----0--0-----0--0--------------------------------------|

E-]----------------------------------------------------------------------------|
B-]----------------------------------------------------------------------------|
G-]-------------5--------5--------5---------5------------2---------3-----------|
D-]-------------5--------5--------5---------5------------2---------3-----------|
A-]-------------3--------3--------3---------3------------0---------1-----------|
D-]-------0--0-----0--0-----0--0-----0--0--------------------------------------|
                                                                     <--solo
                                                                     four times
E-]----------------------------------------------------------------------------|
B-]----------------------------------------------------------------------------|
G-]o---------------7------------6-----------5---------------------------------o|
D-]o---------------7------------6-----------5-------------6------5------------o|
A-]----------------5------------4-----------3-------------6------5-------------|
D-]---------0--0--------0--0--------0--0--------0--0------6------5-------------|

      Oh city beaneath the surface above  how you survive on evil and blood
E-]----------------------------------------------------------------------------|
B-]----------------------------------------------------------------------------|
G-]----10--------------------5---------------------8--------------------4------|
D-]----10--------------------5---------------------8--------------------4------|
A-]-----8--------------------3---------------------6--------------------2------|
D-]----------------------------------------------------------------------------|


E-]----------------------------------------------------------------------------|
B-]----------------------------------------------------------------------------|
G-]o---------------7------------6-----------5---------------------------------o|
D-]o---------------7------------6-----------5-------------6------5------------o|
A-]----------------5------------4-----------3-------------6------5-------------|
D-]---------0--0--------0--0--------0--0--------0--0------6------5-------------|

       You breathers in this space      you can never leave this place
E-]----------------------------------------------------------------------------|
B-]----------------------------------------------------------------------------|
G-]----10--------------------5---------------------8--------------------4------|
D-]----10--------------------5---------------------8--------------------4------|
A-]-----8--------------------3---------------------6--------------------2------|
D-]----------------------------------------------------------------------------|

                                                                     
E-]----------------------------------------------------------------------------|
B-]----------------------------------------------------------------------------|
G-]o--------------------------------------------------------------------------o|
D-]o-----------------5-----------------------------------h-p-h----------------o|
A-]----------0--0--------0--0----5---0--0----6---0--0---4^5^4^5----0-----------|
D-]----------------------------------------------------------------------------|

           Punished for the way that they lived                       ten times
E-]----------------------------------------------------------------------------|
B-]----------------------------------------------------------------------------|
G-]o---------------7------------6-----------5---------------------------------o|
D-]o---------------7------------6-----------5-------------6------5------------o|
A-]----------------5------------4-----------3-------------6------5-------------|
D-]---------0--0--------0--0--------0--0--------0--0------6------5-------------|
           Raping and stealing
           But never one thought to give
           Here forever not a trail or a trace
           Total illusions of tales
           of the unholy place
                                                                    three times
E-]----------------------------|-----------------------------------------------|
B-]----------------------------|-----------------------------------------------|
G-]-----5-\-7--7--7------------|o----5---5--5-\-7--7--7-----------------------o|
D-]-----5-\-7--7--7---6---5----|o----5---5--5-\-7--7--7--------6----5---------o|
A-]-----3-\-5--5--5---6---5----|-----3---3--3-\-5--5--5--------6----5----------|
D-]-------------------6---5----|-------------------------------6----5----------|


E-]----------------------------------------------------------------------------|
B-]----------------------------------------------------------------------------|
G-]-------------------------------- -Synth outro- -----------------------------|
D-]----------------------------------------------------------------------------|
A-]----------------------------------------------------------------------------|
D-]----------------------------------------------------------------------------|