Tabulature for By the Grace of the Witch""
Off the album "The Dungeons are Calling"
Written by Savatage

Transcribed by Brent Passarella
brent42@cris.com

Key: m=mute with palm of hand; h=hammer on; p=pull off; ~=trem bar; /=slide
up; \=slide down; a=artificial harmonic; '=bend up a half; "=bend up a whole
step.

  * Get feedback by holding the guitar up to your speaker
        Warning: this may produce undesired side effects, use with caution.
E-|------------------------------------------------
B-|------------------------------------------------
G-|------------------------------------------------
D-|------------------------------------------------
A-|--2*~~~~~~~~~~~~~~~~~~~~~~~~~~~~~~~~~~~~~~------
E-|------------------------------------------------

     
E-|---------------------------------------------------------
B-|---------------------------------------------------------
G-|---------10\ -9-----7-----5/--7-----7----10\-9/-10/-12---
D-|-----m-m--------m-m-7-m-m-5/--7-m-m-7--m-----------------
A-|-5---0-0-8\  -7-0-0-5-0-0-3/--5-5-5-5--5-8 \-7/-8 /-10---
E-|---------------------------------------------------------

E-|---------------------------------------------------------
B-|---------------------------------------------------------
G-|---------10\ -9-----7-----5/--7-----7----10\-9/-10/-12---
D-|-----m-m--------m-m-7-m-m-5/--7-m-m-7--m-----------------
A-|-5---0-0-8\  -7-0-0-5-0-0-3/--5-5-5-5--5-8 \-7/-8 /-10---
E-|---------------------------------------------------------

E-|---------------------------------------------------------------------------
B-|-------------------------------------------------------------------------4-
G-|-7-----------------------------------------------------7--------------3--3-
D-|-7--------7------5---------------5\-3---5------3---5---7------h--3----3--1-
A-|-5--------5------5--------m-m--5-5\-3---5------3---5---5-----3^5---5--1----
E-|-----------------3--------3-3--3-3\-1---3------1---3-------5---------------
lone in the darkness lonely and scared  you're in fear of your life

E-|---------------------------------------------------------------------------
B-|-------------------------------------------------------------------------4-
G-|-7-p--p-p---p-p--p-p--------5--------------------------7--------------3--3-
D-|-7-7--7-7\5-7-7--7\7-7\3/7--5-----------5------3---5---7------h--3----3--1-
A-|-5-5--5-5\3-5-5--5\5-5\1/5--3-----------5------3---5---5-----3^5---5--1----
E-|----------------------------------------3------1---3-------5---------------
deadly witch's crystal sensing your fears  my spell is cast on you my little
                                                                          dear
E-|---------------------------------------------------------
B-|---------------------------------------------------------
G-|-7-------10\ -9-----7-----5/--7-----7----10\-9/-10/-12---
D-|-7---m-m--------m-m-7-m-m-5/--7-m-m-7--m-----------------
A-|-5---0-0-8\  -7-0-0-5-0-0-3/--5-5-5-5--5-8 \-7/-8 /-10---
E-|---------------------------------------------------------
   Do you feel your captured      BY      the grace of the witch

E-|---------------------------------------------------------
B-|---------------------------------------------------------
G-|-7-------10\ -9-----7-----5/--7-----7----10\-9/-10/-12---
D-|-7---m-m--------m-m-7-m-m-5/--7-m-m-7--m-----------------
A-|-5---0-0-8\  -7-0-0-5-0-0-3/--5-5-5-5--5-8 \-7/-8 /-10---
E-|---------------------------------------------------------
   Do you feel your captured       BY    the grace of the witch

E-|---------------------------------------------------------------------------
B-|-------------------------------------------------------------------------4-
G-|-7-----------------------------------------------------7--------------3--3-
D-|-7--------7------5---------------5\-3---5------3---5---7------h--3----3--1-
A-|-5--------5------5--------m-m--5-5\-3---5------3---5---5-----3^5---5--1----
E-|-----------------3--------3-3--3-3\-1---3------1---3-------5---------------
  Look onto my eyes I'm poisoning you  I watch as you grovel in my stew

E-|---------------------------------------------------------------------------
B-|-------------------------------------------------------------------------4-
G-|-7-p--p-p---p-p--p-p--------5--------------------------7--------------3--3-
D-|-7-7--7-7\5-7-7--7\7-7\3/7--5-----------5------3---5---7------h--3----3--1-
A-|-5-5--5-5\3-5-5--5\5-5\1/5--3-----------5------3---5---5-----3^5---5--1----
E-|----------------------------------------3------1---3-------5---------------
I'm bastardised  cursed by sin come on down to hell watch the flames begin

E-|------------------------------------------------------------------------
B-|------------------------------------------------------------------------
G-|-2-----------------------------------2----------------------------------
D-|-2-2-p-p-3--2--0--2---p-p-p-3-2------2-2-p-p-3--2--0--2---p-p-p-3-2-----
A-|-0-0-0-0---------0----0-0-0-----3-0--0-0-0-0---------0----0-0-0-----3-0-
E-|------------------------------------------------------------------------
   I've got evil on my mind             My power so divine

E-|--------------------------------------------------------------------------
B-|--------------------------------------------------------------------------
G-|--------------------------------------------------------------------------
D-|-5------------------------------------5-----------------------------------
A-|-5-5-p-p-6--5--3--5---p-p-p-6-5-------5-5-p-p-6--5--3--5---p-p-p-6-5------
E-|-3-3-3-3---------3----3-3-3-----6-3---3-3-3-3---------3----3-3-3-----6-3--
   My spells cannot be broke             Until I hang on a rope

E-|------------------------------------------------------------------------
B-|------------------------------------------------------------------------
G-|-2----------------a------------------2--------------------------a-------
D-|-2-2-p-p-3--2--0--2---p-p-p-3-2------2-2-p-p-3--2--0--2---p-p-p-3-2-----
A-|-0-0-0-0---------0----0-0-0-----3-0--0-0-0-0---------0----0-0-0-----3-0-
E-|------------------------------------------------------------------------
    I am not alive or dead              I'm a spirit dressed in red

E-|--------------------------------------------------------------------------
B-|--------------------------------------------------------------------------
G-|--------------------------------------------------------------------------
D-|-5----------------a-------------------5----------------a---------a--------
A-|-5-5-p-p-6--5--3--5---p-p-p-6-5-------5-5-p-p-6--5--3--5---p-p-p-6-5------
E-|-3-3-3-3---------3----3-3-3-----6-3---3-3-3-3---------3----3-3-3-----6-3--
  I've come from the grave               You're soul I'm going to take

E-|----------------------------------------------|
B-|----------------------------------------------|
G-|-7--7----7--7----8--5---7--7----7--7----8--5-o|
D-|-7--7----7--7----8--5---7--7----7--7----8--5-o|
A-|-5--5----5--5----6--3---5--5----5--5----6--3--|
E-|----------------------------------------------|
(two times)

E-|----------------------------------------------|
B-|----------------------------------------------|
G-|-2--2----2--2----3------2--2----2--2----3----o|
D-|-2--2----2--2----3--5---2--2----2--2----3--5-o|
A-|-0--0----0--0----1--5---0--0----0--0----1--5--|
E-|--------------------3----------------------3--|
(two times)

E-|-----------------------------------------------
B-|-----------------------------------------------
G-|-7--7----7--7----8--5---7--7----7--7----8--5---
D-|-7--7----7--7----8--5---7--7----7--7----8--5---
A-|-5--5----5--5----6--3---5--5----5--5----6--3---
E-|-----------------------------------------------

E-|-----------------------------------------------
B-|-----------------------------------------------
G-|-2--2----2--2----3------2--2----2--2----3------
D-|-2--2----2--2----3--5---2--2----2--2----3--5---
A-|-0--0----0--0----1--5---0--0----0--0----1--5---
E-|--------------------3----------------------3---

E-|-------------------------------
B-|-------------------------------
G-|-7-----------------------------
D-|-7-----------------------------
A-|-5-----------------------------
E-|-------------------------------

E-|---------------------------------------------------------
B-|---------------------------------------------------------
G-|-7-------10\ -9-----7-----5/--7-----7----10\-9/-10/-12---
D-|-7---m-m--------m-m-7-m-m-5/--7-m-m-7--m-----------------
A-|-5---0-0-8\  -7-0-0-5-0-0-3/--5-5-5-5--5-8 \-7/-8 /-10---
E-|---------------------------------------------------------
   Do you feel your captured      BY      the grace of the witch

E-|---------------------------------------------------------
B-|---------------------------------------------------------
G-|-7-------10\ -9-----7-----5/--7-----7----10\-9/-10/-12---
D-|-7---m-m--------m-m-7-m-m-5/--7-m-m-7--m-----------------
A-|-5---0-0-8\  -7-0-0-5-0-0-3/--5-5-5-5--5-8 \-7/-8 /-10---
E-|---------------------------------------------------------
   Do you feel your captured       BY    the grace of the witch

E-|---------------------------------------------------------------------------
B-|-------------------------------------------------------------------------4-
G-|-7-----------------------------------------------------7--------------3--3-
D-|-7--------7------5---------------5\-3---5------3---5---7------h--3----3--1-
A-|-5--------5------5--------m-m--5-5\-3---5------3---5---5-----3^5---5--1----
E-|-----------------3--------3-3--3-3\-1---3------1---3-------5---------------
  Look onto my eyes I'm poisoning you  I watch as you grovel in my stew

E-|---------------------------------------------------------------------------
B-|-------------------------------------------------------------------------4-
G-|-7-p--p-p---p-p--p-p--------5--------------------------7--------------3--3-
D-|-7-7--7-7\5-7-7--7\7-7\3/7--5-----------5------3---5---7------h--3----3--1-
A-|-5-5--5-5\3-5-5--5\5-5\1/5--3-----------5------3---5---5-----3^5---5--1----
E-|----------------------------------------3------1---3-------5---------------
I'm bastardised  cursed by sin come on down to hell watch the flames begin

E-|---------------------------------------------------------
B-|---------------------------------------------------------
G-|-7-------10\ -9-----7-----5/--7-----7----10\-9/-10/-12---
D-|-7---m-m--------m-m-7-m-m-5/--7-m-m-7--m-----------------
A-|-5---0-0-8\  -7-0-0-5-0-0-3/--5-5-5-5--5-8 \-7/-8 /-10---
E-|---------------------------------------------------------
   Do you feel your captured      BY      the grace of the witch

E-|---------------------------------------------------------
B-|---------------------------------------------------------
G-|-7-------10\ -9-----7-----5/--7-----7----10\-9/-10/-12---
D-|-7---m-m--------m-m-7-m-m-5/--7-m-m-7--m-----------------
A-|-5---0-0-8\  -7-0-0-5-0-0-3/--5-5-5-5--5-8 \-7/-8 /-10---
E-|---------------------------------------------------------
   Do you feel your captured       BY    the grace of the witch

E-|---------------------------------------------------------
B-|---------------------------------------------------------
G-|-7-------10\ -9-----7-----5/--7-----7----10\-9/-10/-12---
D-|-7---m-m--------m-m-7-m-m-5/--7-m-m-7--m-----------------
A-|-5---0-0-8\  -7-0-0-5-0-0-3/--5-5-5-5--5-8 \-7/-8 /-10---
E-|---------------------------------------------------------
   Do you feel your captured      BY      the grace of the witch

E-|---------------------------------------------------------
B-|---------------------------------------------------------
G-|-7-------10\ -9-----7-----5/--7-----7----10\-9/-10/-12---
D-|-7---m-m--------m-m-7-m-m-5/--7-m-m-7--m-----------------
A-|-5---0-0-8\  -7-0-0-5-0-0-3/--5-5-5-5--5-8 \-7/-8 /-10---
E-|---------------------------------------------------------
   Do you feel your captured       BY    the grace of the witch

E-|---------------------------------------------------------
B-|---------------------------------------------------------
G-|-7-------10\ -9-----7-----5/--7-----7----10\-9/-10/-12---
D-|-7---m-m--------m-m-7-m-m-5/--7-m-m-7--m-----------------
A-|-5---0-0-8\  -7-0-0-5-0-0-3/--5-5-5-5--5-8 \-7/-8 /-10---
E-|---------------------------------------------------------
   Do you feel your captured      BY      the grace of the witch

E-|---------------------------------------------------------
B-|---------------------------------------------------------
G-|-7-------10\ -9-----7-----5/--7-----7----10\-9/-10/-12---
D-|-7---m-m--------m-m-7-m-m-5/--7-m-m-7--m-----------------
A-|-5---0-0-8\  -7-0-0-5-0-0-3/--5-5-5-5--5-8 \-7/-8 /-10---
E-|---------------------------------------------------------
   Do you feel your captured       BY    the grace of the witch

(fade)