Tabulature for "The Whip"
Off the album "The Dungeons are Calling"
Written by Savatage

Transcribed by Daryl J. Bugbee bugbeed@db.erau.edu


E-]-]--------------------------------------------------------------------------|
B-]-]----0---------3---0-------------0---------3-------------------------------|
G-]o]o---0---------3---0-------------0---------3------------------------------o|
D-]o]o---0-0-0---0-3---0-0-0---0-3---0-0-0---0-3------------------------------o|
A-]-]----------------------------3------------------p---p------p---p---s-------|
D-]-]----------------------------3----------------8-^-6-^-5--8-^-6-^-5-\-3~~~ -|

   1. Baby better get it staraght I'm a nasty ...................till you're   
   2. Baby baby don't you go can't you see.......................you at my
E-]----------------------------------------------------------------------------|
B-]----------------------------------------------------------------------------|
G-]---5-5-5-5-5-5---4-4---5-5-5-5-5-5---7-8---5-5-5-5-5-5---4-4---5-5-5-5------|
D-]---5-5-5-5-5-5---4-4---5-5-5-5-5-5---7-8---5-5-5-5-5-5---4-4---5-5-5-5------|
A-]---3-3-3-3-3-3---2-2---3-3-3-3-3-3---5-6---3-3-3-3-3-3---2-2---3-3-3-3------|
D-]-----------------------------------------------------------------------5~~ -|

   1. Scarred
   2. Command
E-]----------------------------------------------------------------------------|
B-]------0---------3---0-------------0---------3-------------------------------|
G-]o-----0---------3---0-------------0---------3------------------------------o|
D-]o-----0-0-0---0-3---0-0-0---0-3---0-0-0---0-3------------------------------o|
A-]------------------------------3------------------p---p------p---p---s-------|
D-]------------------------------3----------------8-^-6-^-5--8-^-6-^-5-\-3~~~ -|

   1. Down down on your knees......................................gonna come
   2. Down down on your knees......................................won't have to
E-]----------------------------------------------------------------------------|
B-]----------------------------------------------------------------------------|
G-]---5-5-5-5-5-5---4-4---5-5-5-5-5-5---7-8---5-5-5-5-5-5---4-4---5-5-5-5------|
D-]---5-5-5-5-5-5---4-4---5-5-5-5-5-5---7-8---5-5-5-5-5-5---4-4---5-5-5-5------|
A-]---3-3-3-3-3-3---2-2---3-3-3-3-3-3---5-6---3-3-3-3-3-3---2-2---3-3-3-3------|
D-]-----------------------------------------------------------------------5~~ -|

   1. Inside
   2. Wait                                           yhea yhea
E-]----------------------------------------------------------------------------|
B-]------0---------3---0-------------0---------3-------------------------------|
G-]o-----0---------3---0-------------0---------3------------------------------o|
D-]o-----0-0-0---0-3---0-0-0---0-3---0-0-0---0-3------------------------------o|
A-]------------------------------3------------------p---p------p---p---s-------|
D-]------------------------------3----------------8-^-6-^-5--8-^-6-^-5-\-3~~~ -|

      The whip is gonna get get you                 drop you to your knees
E-]----------------------------------------------------------------------------|
B-]----------------------------------------------------------------------------|
G-]o---------------------------------------------------------------------4----o|
D-]o--------------------Muted ...     ...     ...  ----------------------2----o|
A-]----5--3--1--0--------------------------------------3--1--0-----------2-----|
D-]----------------3--5~~ -5--5-5--5--5-5--5--5-5--5------------3--2~~ --------|
      
    Down on your knees
E-]--------------------------------------------------------------------------[-|
B-]-----s---s------s----s----------------------------------------------------[-|
G-]---4-\-5-\-7--9-\-10-\-12-------12--12----12--12----12--12--12--12--------[o|
D-]-----s---s------s----s----------12--12----12--12----12--12--12--12-----X/-[o|
A-]---2-\-3-\-5--7-\--8-\-10-------10--10----10--10----10--10--10--10-----X/-[-|
D-]--------------------------------------------------------------------------[-|

      solo-->
E-]----------------------------------------------------------------------------|
B-]----------------------------------------------------------------------------|
G-]----------------------------------------------------------------------------|
D-]----------------------------------------------------------------------------|
A-]---2-2-2-2-2-2-2---0-0---2-2-2-2-2-2---0-0---2-2-2-2-2-2---0-0---2-2-2-2----|
D-]---2-2-2-2-2-2-2---0-0---2-2-2-2-2-2---0-0---2-2-2-2-2-2---0-0---2-2-2-2----|

E-]----------------------------------------------------------------------------|
B-]----------------------------------------------------------------------------|
G-]---5-5-5-5-5-5---4-4---5-5-5-5-5-5---7-8---5-5-5-5-5-5---4-4---5-5-5-5------|
D-]---5-5-5-5-5-5---4-4---5-5-5-5-5-5---7-8---5-5-5-5-5-5---4-4---5-5-5-5------|
A-]---3-3-3-3-3-3---2-2---3-3-3-3-3-3---5-6---3-3-3-3-3-3---2-2---3-3-3-3------|
D-]----------------------------------------------------------------------------|
                                                                       <--solo
E-]----------------------------------------------------------------------------|
B-]----------------------------------------------------------------------------|
G-]----------------------------------------------------------------------------|
D-]----------------------------------------------------------------------------|
A-]---2-2-2-2-2-2-2---0-0---2-2-2-2-2-2---0-0---2-2-2-2-2-2---0-0---2-2-2-2----|
D-]---2-2-2-2-2-2-2---0-0---2-2-2-2-2-2---0-0---2-2-2-2-2-2---0-0---2-2-2-2----|

     The whip is gonna get you                      drop you to your knees
E-]----------------------------------------------------------------------------|
B-]----------------------------------------------------------------------------|
G-]o---------------------------------------------------------------------4----o|
D-]o--------------------Muted ...     ...     ...  ----------------------2----o|
A-]----5--3--1--0--------------------------------------3--1--0-----------2-----|
D-]----------------3--5~~ -5--5-5--5--5-5--5--5-5--5------------3--2~~ --------|


E-]----------------------------------------------------------------------------|
B-]----------------------------------------------------------------------------|
G-]----------------------------------------------------------------------------|
D-]----------3---3-------3---3-------3---3--------3---------3------------------|
A-]----------3---3-------3---3-------3---3--------3---------3------------------|
D-]----------3---3-------3---3-------3---3--------3---------3------------------|

                                         
E-]----------------------------------------------------------------------------|
B-]------0---------3---0-------------0---------3-------------------------------|
G-]o-----0---------3---0-------------0---------3------------------------------o|
D-]o-----0-0-0---0-3---0-0-0---0-3---0-0-0---0-3------------------------------o|
A-]------------------------------3------------------p---p------p---p---s-------|
D-]------------------------------3----------------8-^-6-^-5--8-^-6-^-5-\-3~~~ -|

   solo-->                                                           four times
E-]----------------------------------------------------------------------------|
B-]------0---------3---0-------------0---------3-------------------------------|
G-]o-----0---------3---0-------------0---------3------------------------------o|
D-]o-----0-0-0---0-3---0-0-0---0-3---0-0-0---0-3------------------------------o|
A-]------------------------------3------------------p---p------p---p---s-------|
D-]------------------------------3----------------8-^-6-^-5--8-^-6-^-5-\-3~~~ -|

                                                      <--solo   Oh yhea
E-]----------------------------------------------------------------------------|
B-]----------------------------------------------------------------------------|
G-]----------------------------------------------------------------------------|
D-]----------------------------------------------------------3----3----3-------|
A-]-----p---p------p---p---s------p---p------p---p---s-------3----3----3-------|
D-]---8-^-6-^-5--8-^-6-^-5-\-3--8-^-6-^-5--8-^-6-^-5-\-3-----3----3----3-------|