Tabulature for "Dead Winter Dead"
Off the album "Dead Winter Dead"
Written by Savatage

Transcribed by Andrew Wehrstedt Mr.Lycan@softhome.net


I haven't included Chris's solos.  I'll tab them when I get a chance
and submit it as a seperate tab.

--------------------------|-----------------------|---------------------------
--------------------------|-----------------------|---------------------------
--------------------------|-----------------------|---------------------------
-------------------------2|----------------------2|----------------------2----
-4-4-2-4-4-2-4-4-2-4-2-4-0|4-2-4-4-2-4-4-2-4-2-4-0|4-2-4-4-2-4-4-2-4-2-4-0----
-2-2-0-2-2-0-2-2-0-2-0-2--|2-0-2-2-0-2-2-0-2-0-2--|2-0-2-2-0-2-2-0-2-0-2------
          Intro & Verse riff                                                  

---------------------------|--------------------------------|-----------------
---------------------------|--------------------------------|-----------------
---------------------------|-4-4-2-7-4-4-2-7-4-4-2-7-4-4-2--|-----------------
------------4-------2------|-4-4-2-7-4-4-2-7-4-4-2-7-4-4-2-5|-----------------
--4-2-4-4-2-0-4-2-4-0-4-2-4|-2-2-0-5-2-2-0-5-2-2-0-5-2-2-0-5|-----------------
--2-0-2-2-0---2-0-2---2-0-2|-------------------------------3|-----------------
                             I've lost my way, etc..           play into      

------|-----------|-----------------|-----------------------------------------
------|-----------|-----------------|-----------------------------------------
------|-4-4-4-5-6-|-----------------|-----------------------------------------
------|-4-4-4-5-6-|-----------------|-----------------------------------------
------|-2-2-2-3-4-|-----------------|-----------------------------------------
------|-----------|-----------------|-----------------------------------------
 riff  Where this..Dead Winter Dead       Intro Riff again                    

----------------------------|-17------17------17------17------17----------|---
----------------------------|----16-x----16-x----16-x----16-x----16-x-x-x-|---
----------------------------|---------------------------------------------|---
----------------------------|---------------------------------------------|---
-------0---2---3-----3h4p3p2|---------------------------------------------|---
-2-2-2---2---2---2-2--------|---------------------------------------------|---
 Guitar Break in the middle of the song..                Lead Guitar          

-----------------|----------------|-------------------------------------------
-----------------|----------------|-------------------------------------------
------6-/-11-\-6-|-11\-6-5-4------|-------------------------------------------
---4-------------|------------7-4-|-------------------------------------------
------4-/-9--\-4-|-9-\-4-3-2------|-0-------0-------0-----0-0-----------------
---2-------------|------------5-2-|---2-0-2---2-0-2---2-0---------------------
  Piano and Bass Break              Ending Solo by Al..  Chris's Rhythm