Tabulature for "All That I Bleed"
Off the album "Edge of Thorns"
Written by Savatage

Transcribed by Brent Passarella brent42@cris.com


I've found some of the beginning piano arrangements, not all though, This 
song is written in the key of Bb Major (G minor) if that helps anyone any.

Piano note names only  

D    D    C    C    Bb   Bb   C    C      |
Bb F Bb F Bb F Bb F G Eb G Eb Bb F Bb F  *|
					 *|
					  |


Eb    Eb    Eb    Eb    D      D      D      D       |  
C  G  C  G  C  G  C  G  Bb  F  Bb  F  Bb  F  Bb  F  *|         
						    *|
						     |	
All the things .....



When the switch from soft to heavy comes fade in with a palm muted F5

gtr. 1

E--|----------------------------------|
B--|----------------------------------|
G--|-3-------8--8-7-8---3----3-------*|
D--|-3-------8----------3----3-2-----*|
A--|-1-------6--6-5-6---1----1-0---3--|
E--|-----------------------------3-1--|
   |
   |
Bass 1
   |
   |
G--|----------------------------------|
D--|---------------------------------*|
A--|-1-0-----6--6-5-6---1----1-0-----*|
E--|-----3-1---------------------3-1--|

Lord bring...


gtr.2
E--|-----------------------------|
B--|-----------------------------|
G--|-3-------7-8----12--10------*|
D--|-3--------------------------*|
A--|-1-------5-6----10--8--------|
E--|-----------------------------|

and I'll fly away...


Beginning of heavy part

F5 F5 F5 F5 F5 F5 F5 F5

gtr. 1  X8  gtr.2 x3  

F5 F5 F5 F5 F5

(solo) 
gtr.1  x2

last chorus gtr.1 x4

Exit intro piano piece