Tabulature for "Degrees Of Sanity"
Off the album "Edge of Thorns"
Written by Savatage

Transcribed by Andrew Wehrstedt Mr.Lycan@softhome.net

-----------------------------------------------------------|------------------
-----------------------------------------------------------|------------------
--------18-------20-------21----------15-14-15-15-17-15-14-|------------------
--19-19----19-19----19-19----19-19-19----------------------|------------------
-----------------------------------------------------------|------------------
-----------------------------------------------------------|------------------
 Intro riff..dubbed with a sitar or sitar like effect.  Play 3 times          

-----------------|----------------|----------------|0-----0-----0-------------
-----------------|----------------|----------------|--0-----0-----0-----------
--2--------------|-----------2---3|----------------|----3-----3---------------
--2--------------|-----------2---3|----------------|--------------------------
--0-0-0-0-0-0-0-0|-0-0-0-0-0---0--|-1-1-1-1-1-1-1-1|--------------------------
-----------------|----------------|----------------|--------------------------
 Main riff..used during all the verses                                        

-------------------|------------------|------------------|--------------------
-------------------|------------------|------------------|--------------------
--9----3----------3|-9----3----------3|-9----3----------3|-9------------------
--9----3----------3|-9----3----------3|-9----3----------3|-9----5---3---------
--7----1--1-1-1-1-1|-7----1--1-1-1-1-1|-7----1--1-1-1-1-1|-7----5---3---------
-------------------|------------------|------------------|------3---1---------
 Stake..what's that you said to me..etc..                  All alone..etc     

--------------------------------------------|---------------------------------
---------------13p10------------13p10-------|----------------16p13------------
--------9----9-----------9----9-------9----9|-------12----12----------12------
-----10---10----------10---10-----------10--|----13----13----------13----13---
--12----------------------------------------|-15------------------------------
--------------------------------------------|---------------------------------
 Criss's brilliant little arpeggio riff..                                     

------------------|-----------------------------------------|-----------------
----16p14---------|-------------13p10-----------13p10-------|-----------------
-12-------12----12|------9----9----------9----9-------9----9|-------12----12--
-------------13---|---10---10---------10---10-----------10--|----13----13-----
------------------|12---------------------------------------|-15--------------
------------------|-----------------------------------------|-----------------
                                                                              

-------------|------------------------|---------------------------------------
-16p14-----16|------------------------|---------------------------------------
--------12---|-----2-------------5-5-4|-----2-------------5-5-4---------------
-------------|-4-4-2-4-4-4-4-4-4-5-5-4|-4-4-2-4-4-4-4-4-4-5-5-4---------------
-------------|-4-4-0-4-4-4-4-4-4-3-3-2|-4-4-0-4-4-4-4-4-4-3-3-2---------------
-------------|-2-2---2-2-2-2-2-2------|-2-2---2-2-2-2-2-2---------------------
               Rhythm for Solo                                                

-------------------------|-----------------------|---------|------------------
-------------------------|-----------------------|---------|------------------
-----2-------------5-5-4-|----2-------------5-5-4|-5-5-4---|2-------5----7----
-4-4-2-4-4-4-4-4-4-5-5-4-|4-4-2-4-4-4-4-4-4-5-5-4|-5-5-4---|2-------5----7----
-4-4-0-4-4-4-4-4-4-3-3-2-|4-4-0-4-4-4-4-4-4-3-3-2|-3-3-2---|0-------3----5----
-2-2---2-2-2-2-2-2-------|2-2---2-2-2-2-2-2------|---------|------------------
                                                                              

---------------|--------------------|-----------------------------------------
---------------|--------------------|-----------------------------------------
-2-------5----7|-2-----------5-----7|------18-------20-----21---15-14-15-15---
-2-------5----7|-2-----------5-----7|19-19----19-19----19---------------------
-0-------3----5|-0-----------3-----5|-----------------------------------------
---------------|--------------------|-----------------------------------------
                                                                              

---------|-----------------------------------------------|--------------------
---------|-----------------------------------------------|--------------------
-17-15-14|-------18------20----21---15-14-15--15-17-15-14|------18-------20---
---------|-19-19---19-19----19---------------------------|19-19----19-19------
---------|-----------------------------------------------|--------------------
---------|-----------------------------------------------|--------------------
                                                                              

------------------------------|-----------------------------------------------
------------------------------|-----------------------------------------------
----21---15-14-15--15-17-15-14|-------18-------20----21---15-14-15--15-17-15--
-19---------------------------|-19-19----19-19----19--------------------------
------------------------------|-----------------------------------------------
------------------------------|-----------------------------------------------
                                                                              

---|-----------------|----------------|---------------|-0-----0-----0---------
---|-----------------|----------------|---------------|---0-----0-----0-------
-14|-2---------------|-----------2---3|---------------|-----3-----3-----------
---|-2---------------|-----------2---3|---------------|-----------------------
---|-0-0-0-0-0-0-0-0-|-0-0-0-0-0---0--|1-1-1-1-1-1-1-1|-----------------------
---|-----------------|----------------|---------------|-----------------------
    Play this riff again for the last verse                                   

-----------------------|----------------------|---------------------|---------
-----------------------|----------------------|---------------------|---------
--9--------3----------3|-9---------3---------3|-9--------3---------3|---------
--9--------3----------3|-9---------3---------3|-9--------3---------3|---------
--7--------1--1-1-1-1-1|-7---------1-1-1-1-1-1|-7--------1-1-1-1-1-1|---------
-----------------------|----------------------|---------------------|---------
  Well..whats that you said to me                                             

-------------|------------------------|---------------------------------------
-------------|------------------------|---------------------------------------
--9----------|------------------------|-------18-------20-------21-------18---
--9------5--3|------------------------|-19-19----19-19----19-19----19-19------
--7------5--3|------------------------|---------------------------------------
---------3--1|------------------------|---------------------------------------
              And whispered in your..                                         

------|------------------------------------------|0---------------------------
------|------------------------------------------|0---------------------------
----20|-------18-------20-------21-------18----20|2---------------------------
-19---|-19-19----19-19----19-19----19-19----19---|2---------------------------
------|------------------------------------------|0---------------------------
------|------------------------------------------|----------------------------