Tabulature for "Miles Away"
Off the album "Edge of Thorns"
Written by Savatage

Transcribed by Brent Passarella brent42@cris.com

(clean sound w/chorus effect)

E--|--7----7----7----7---7----7-7-7------------------0------------0----------
B--|--8----8----8----8---8----8-8-8---10----10---------10---10-------10---10-
G--|--7----7----7----7---7----7-7-7---11--------11--------11------------11---
D--|----------------------------------12-12--------12-----------12-----------
A--|-------------------------------------------------------------------------
E--|-------------------------------------------------------------------------

E--|-------------------------------------------------------|
B--|--8----8----8----8----8----8----8---12--12\----7-------|
G--|--9-----9----9----9----9----9---9---12--12\----7-------|
D--|--10-----10---10---10---10---10-10--12--12\----7-------|
A--|-------------------------------------------------------|
E--|-------------------------------------------------------|

E--|--7----7----7----7---7----7-7-7------------------0------------0----------
B--|--8----8----8----8---8----8-8-8---10----10---------10---10-------10---10-
G--|--7----7----7----7---7----7-7-7---11--------11--------11------------11---
D--|----------------------------------12-12--------12-----------12-----------
A--|-------------------------------------------------------------------------
E--|-------------------------------------------------------------------------
                  And a cool, cool   rain     comes down

E--|-------------------------------------------------------|
B--|--8----8----8----8----8----8----8---12--12\----7--7---7|
G--|--9-----9----9----9----9----9---9---12--12\----7---7---|
D--|--10-----10---10---10---10---10-10--12--12\----7----7--|
A--|-------------------------------------------------------|
E--|-------------------------------------------------------|
      On  a   world  burned  by  the   sun
      
E--|--7----7----7----7---7----7-7-7------------------0------------0----------
B--|--8----8----8----8---8----8-8-8---10----10---------10---10-------10---10-
G--|--7----7----7----7---7----7-7-7---11--------11--------11------------11---
D--|----------------------------------12-12--------12-----------12-----------
A--|-------------------------------------------------------------------------
E--|-------------------------------------------------------------------------
                And the moon arises       like a child

E--|--------------------------------------------------0----|
B--|--8----8----8----8----8----8----8---12--12\----7-7-----|
G--|--9-----9----9----9----9----9---9---12--12\----7----7--|
D--|--10-----10---10---10---10---10-10--12--12\----7------7|
A--|-------------------------------------------------------|
E--|-------------------------------------------------------|
     and     the     moment       is    undone

E--|-----0-------0-------0--------0---------0-------0-------0--------0-----
B--|-------0-------0-------0--------0---------0-------0-------0--------0---
G--|--5------/7------\5-------/7--------\5------/7------\5-------/7------7-
D--|--5------/7------\5-------/7--------\5------/7------\5-------/7--------
A--|-----------------------------------------------------------------------
E--|-----------------------------------------------------------------------
and the stars never say what they see as the moon flirts with shadows it makes

E--|-------------------------0-------------------------------0------
B--|----------------------------0------------------------------0----
G--|----------------0--------------0------------------0----------0--
D--|-----------2--------2------------------------2--------2---------
A--|------2---------------------------------2-----------------------
E--|-0---------------------------------0----------------------------
    Through the fallen trees

E--|-----0-------0-------0--------0---------0-------0-------0--------0-----
B--|-------0-------0-------0--------0---------0-------0-------0--------0---
G--|--5------/7------\5-------/7--------\5------/7------\5-------/7------7-
D--|--5------/7------\5-------/7--------\5------/7------\5-------/7--------
A--|-----------------------------------------------------------------------
E--|-----------------------------------------------------------------------
     Some would wait for the morning light but I fall asleep till I'm safe

E--|-------------------------0-------------------------------0------
B--|----------------------------0-----------------------------------
G--|----------------0--------------0------------------0-------------
D--|-----------2--------2------------------------2--------2---------
A--|------2---------------------------------2-----------------------
E--|-0---------------------------------0----------------------------
    in    the     arms    of     night

(distortion with same chorus effect as with clean part)
E--|--8---------8----------8\-----\5---------5----------5\--------
B--|--7---------7----------7\-----\7---------7----------7\--------
G--|--8---------8----------8\-----\7---------7----------7\--------
D--|----0-0-0-0---0-0-0-0----0-0-0---0-0-0-0---0-0-0-0----0-0-0---
A--|--------------------------------------------------------------
E--|--------------------------------------------------------------

E--|-\3---------3-----------3------/8---\2--
B--|-\5---------5-----------5------/7---\3--
G--|-\5---------5-----------5------/8---\2--
D--|----0-0-0-0---0-0-0-0-0---0-0-0---0-----
A--|----------------------------------------
E--|----------------------------------------
                                           Yeah

E--|--8---------8----------8\-----\5---------5----------5\--------
B--|--7---------7----------7\-----\7---------7----------7\--------
G--|--8---------8----------8\-----\7---------7----------7\--------
D--|----0-0-0-0---0-0-0-0----0-0-0---0-0-0-0---0-0-0-0----0-0-0---
A--|--------------------------------------------------------------
E--|--------------------------------------------------------------

E--|-\3---------3-----------3------/8---\2--
B--|-\5---------5-----------5------/7---\3--
G--|-\5---------5-----------5------/8---\2--
D--|----0-0-0-0---0-0-0-0-0---0-0-0---0-----
A--|----------------------------------------
E--|----------------------------------------

E--|--8---------8----------8\-----\5---------5----------5\--------
B--|--7---------7----------7\-----\7---------7----------7\--------
G--|--8---------8----------8\-----\7---------7----------7\--------
D--|----0-0-0-0---0-0-0-0----0-0-0---0-0-0-0---0-0-0-0----0-0-0---
A--|--------------------------------------------------------------
E--|--------------------------------------------------------------
                      Let  the   darkness    roll      in  

E--|-\3---------3-----------3------/8---\2--
B--|-\5---------5-----------5------/7---\3--
G--|-\5---------5-----------5------/8---\2--
D--|----0-0-0-0---0-0-0-0-0---0-0-0---0-----
A--|----------------------------------------
E--|----------------------------------------
      Let it   wipe   the   light   away

E--|--8---------8----------8\-----\5---------5----------5\--------
B--|--7---------7----------7\-----\7---------7----------7\--------
G--|--8---------8----------8\-----\7---------7----------7\--------
D--|----0-0-0-0---0-0-0-0----0-0-0---0-0-0-0---0-0-0-0----0-0-0---
A--|--------------------------------------------------------------
E--|--------------------------------------------------------------
                   In    the     distance   always    calling

E--|-\3---------3-----------3------/8---\2--
B--|-\5---------5-----------5------/7---\3--
G--|-\5---------5-----------5------/8---\2--
D--|----0-0-0-0---0-0-0-0-0---0-0-0---0-----
A--|----------------------------------------
E--|----------------------------------------
          Morpheus      he      beckons play

E--|-----0-------0-------0--------0---------0-------0-------0--------0-----
B--|-------0-------0-------0--------0---------0-------0-------0--------0---
G--|--5------/7------\5-------/7--------\5------/7------\5-------/7------7-
D--|--5------/7------\5-------/7--------\5------/7------\5-------/7--------
A--|-----------------------------------------------------------------------
E--|-----------------------------------------------------------------------
     Still the morining is pre ordained but I believe light is the source

E--|-------------------------0-------------------------------0------
B--|----------------------------0------------------------------0----
G--|----------------0--------------0------------------0----------0--
D--|-----------2--------2------------------------2--------2---------
A--|------2---------------------------------2-----------------------
E--|-0---------------------------------0----------------------------
       of all our pain

E--|-----0-------0-------0--------0---------0-------0-------0--------0-----
B--|-------0-------0-------0--------0---------0-------0-------0--------0---
G--|--5------/7------\5-------/7--------\5------/7------\5-------/7------7-
D--|--5------/7------\5-------/7--------\5------/7------\5-------/7--------
A--|-----------------------------------------------------------------------
E--|-----------------------------------------------------------------------
    It reveals our smallest sin but dark covers all and will always take you

E--|------------0--0\------------0--0\------------7--7\------------7--7\-
B--|------------8--8\------------8--8\------------8--8\------------8--8\-
G--|------------7--7\------------7--7\------------7--7\------------7--7\-
D--|-----------------------------------5-5-5-5----------5-5-5-5----------
A--|-2-2-2-2----------2-2-2-2----------5-5-5-5----------5-5-5-5----------
E--|-0-0-0-0----------0-0-0-0----------3-3-3-3----------3-3-3-3----------
   Armed and gunning  I'll be running  Always just before the day               

E--|------------0--0\------------0--0\------------7--7\------------7--7\-
B--|------------8--8\------------8--8\------------8--8\------------8--8\-
G--|------------7--7\------------7--7\------------7--7\------------7--7\-
D--|-----------------------------------5-5-5-5----------5-5-5-5----------
A--|-2-2-2-2----------2-2-2-2----------5-5-5-5----------5-5-5-5----------
E--|-0-0-0-0----------0-0-0-0----------3-3-3-3----------3-3-3-3----------
    In the distance   Day is dawning   But I'm already miles away
                                                                    (pick slide)
E--|-----------------------------0----------------------------------------------
B--|--------------------------------0-------------------------------------------
G--|-------0--------0---------2--------2-----------0--------0-------------0----\
D--|----2--------0----0-----2-------------------2--------0----0--------2-----2-\
A--|-3--------2----------0----------------2--3--------2-------------2----------\
E--|-------------------------------------------------------------0-------------\
Miles away                                   yeah____yah_______ya

E--|--8---------8----------8\-----\5---------5----------5\--------
B--|--7---------7----------7\-----\7---------7----------7\--------
G--|--8---------8----------8\-----\7---------7----------7\--------
D--|----0-0-0-0---0-0-0-0----0-0-0---0-0-0-0---0-0-0-0----0-0-0---
A--|--------------------------------------------------------------
E--|--------------------------------------------------------------
                      In the night there's wonder 

E--|-\3---------3-----------3------/8---\2--
B--|-\5---------5-----------5------/7---\3--
G--|-\5---------5-----------5------/8---\2--
D--|----0-0-0-0---0-0-0-0-0---0-0-0---0-----
A--|----------------------------------------
E--|----------------------------------------
      always there for you to see

E--|--8---------8----------8\-----\5---------5----------5\--------
B--|--7---------7----------7\-----\7---------7----------7\--------
G--|--8---------8----------8\-----\7---------7----------7\--------
D--|----0-0-0-0---0-0-0-0----0-0-0---0-0-0-0---0-0-0-0----0-0-0---
A--|--------------------------------------------------------------
E--|--------------------------------------------------------------
                   In    the     light    of      morning

E--|-\3---------3-----------3------/8---\2--
B--|-\5---------5-----------5------/7---\3--
G--|-\5---------5-----------5------/8---\2--
D--|----0-0-0-0---0-0-0-0-0---0-0-0---0-----
A--|----------------------------------------
E--|----------------------------------------
          visions fade and dreams can't be

E--|-----0-------0-------0--------0---------0-------0-------0--------0-----
B--|-------0-------0-------0--------0---------0-------0-------0--------0---
G--|--5------/7------\5-------/7--------\5------/7------\5-------/7------7-
D--|--5------/7------\5-------/7--------\5------/7------\5-------/7--------
A--|-----------------------------------------------------------------------
E--|-----------------------------------------------------------------------
     With the darkness the night forgives covers our scars and lets

E--|-------------------------0-------------------------------0------
B--|----------------------------0------------------------------0----
G--|----------------0--------------0------------------0----------0--
D--|-----------2--------2------------------------2--------2---------
A--|------2---------------------------------2-----------------------
E--|-0---------------------------------0----------------------------
       the lost souls live

E--|-----0-------0-------0--------0---------0-------0-------0--------0-----
B--|-------0-------0-------0--------0---------0-------0-------0--------0---
G--|--5------/7------\5-------/7--------\5------/7------\5-------/7------7-
D--|--5------/7------\5-------/7--------\5------/7------\5-------/7--------
A--|-----------------------------------------------------------------------
E--|-----------------------------------------------------------------------
    And the morning's a distant fear but if we move fast they'll never find us

E--|------------0--0\------------0--0\------------7--7\------------7--7\-
B--|------------8--8\------------8--8\------------8--8\------------8--8\-
G--|------------7--7\------------7--7\------------7--7\------------7--7\-
D--|-----------------------------------5-5-5-5----------5-5-5-5----------
A--|-2-2-2-2----------2-2-2-2----------5-5-5-5----------5-5-5-5----------
E--|-0-0-0-0----------0-0-0-0----------3-3-3-3----------3-3-3-3----------
   Armed and gunning  I'll be running  Through a world that's in decay


E--|------------0--0\------------0--0\------------7--7\------------7--7\-
B--|------------8--8\------------8--8\------------8--8\------------8--8\-
G--|------------7--7\------------7--7\------------7--7\------------7--7\-
D--|-----------------------------------5-5-5-5----------5-5-5-5----------
A--|-2-2-2-2----------2-2-2-2----------5-5-5-5----------5-5-5-5----------
E--|-0-0-0-0----------0-0-0-0----------3-3-3-3----------3-3-3-3----------
    Let them thunder  stare and wonder  'cause I'm already miles away

E--|-----------------------------0----------------------------------------------
B--|--------------------------------0-------------------------------------------
G--|-------0--------0---------2--------2-----------0--------0-------------0----\
D--|----2--------0----0-----2-------------------2--------0----0--------2-----2-\
A--|-3--------2----------0----------------2--3--------2-------------2----------\
E--|-------------------------------------------------------------0-------------\
Miles away                                   yeah____yah_______ya

E--|-------------------------0-------------------------------0------
B--|----------------------------0------------------------------0----
G--|----------------0--------------0------------------0----------0--
D--|-----------2--------2------------------------2--------2---------
A--|------2---------------------------------2-----------------------
E--|-0---------------------------------0----------------------------

E--|-----------------------------------------h-------a---------------------
B--|----------8'-----8-------5----6----8----6^8--5---5'--------------------
G--|-----------------------------------------------------------------------
D--|-------------------------------------------------------------5---4---0-
A--|-----------------------------------------------------------------------
E--|-----------------------------------------------------------------------
   |
E--|-----0-------0-------0--------0---------0-------0-------0--------0-----
B--|-------0-------0-------0--------0---------0-------0-------0--------0---
G--|--5------/7------\5-------/7--------\5------/7------\5-------/7------7-
D--|--5------/7------\5-------/7--------\5------/7------\5-------/7--------
A--|-----------------------------------------------------------------------
E--|-----------------------------------------------------------------------

E--|-----------------------------------------------------------------
B--|-----------------------------------------------------------------
G--|----------------m---m-----------m---m-----------m---m-------a----
D--|-2------5---4---0---4---5---4---0---4---5---4---0---2---0---2'---
A--|-----------------------------------------------------------------
E--|-----------------------------------------------------------------
   |
E--|-------------------------0-------------------------------0------
B--|----------------------------0------------------------------0----
G--|----------------0--------------0------------------0----------0--
D--|-----------2--------2------------------------2--------2---------
A--|------2---------------------------------2-----------------------
E--|-0---------------------------------0----------------------------

E--|-----------------------------------------------------------------------
B--|---------------a-----------------------a-------------------------------
G--|---------------5-----------------------5-------------------------------
D--|---m--m--m--m-----m--m--m--m--m--m--m----------------------------------
A--|---0--0--0--0-----0--0--0--0--0--0--0----------------------------------
E--|-----------------------------------------------------------------------
   |
E--|-----0-------0-------0--------0---------0-------0-------0--------0-----
B--|-------0-------0-------0--------0---------0-------0-------0--------0---
G--|--5------/7------\5-------/7--------\5------/7------\5-------/7------7-
D--|--5------/7------\5-------/7--------\5------/7------\5-------/7--------
A--|-----------------------------------------------------------------------
E--|-----------------------------------------------------------------------

(sorry guys, that's all the solo I could figure out so far, keep checkin'
for more)

E--|-------------------------0-------------------------------0------
B--|----------------------------0------------------------------0----
G--|----------------0--------------0------------------0----------0--
D--|-----------2--------2------------------------2--------2---------
A--|------2---------------------------------2-----------------------
E--|-0---------------------------------0----------------------------

E--|-----0-------0-------0--------0---------0-------0-------0--------0-----
B--|-------0-------0-------0--------0---------0-------0-------0--------0---
G--|--5------/7------\5-------/7--------\5------/7------\5-------/7------7-
D--|--5------/7------\5-------/7--------\5------/7------\5-------/7--------
A--|-----------------------------------------------------------------------
E--|-----------------------------------------------------------------------

E--|------------0--0\------------0--0\------------7--7\------------7--7\-
B--|------------8--8\------------8--8\------------8--8\------------8--8\-
G--|------------7--7\------------7--7\------------7--7\------------7--7\-
D--|-----------------------------------5-5-5-5----------5-5-5-5----------
A--|-2-2-2-2----------2-2-2-2----------5-5-5-5----------5-5-5-5----------
E--|-0-0-0-0----------0-0-0-0----------3-3-3-3----------3-3-3-3----------
   Armed and gunning  I'll be running  Always just before the day               

E--|------------0--0\------------0--0\------------7--7\------------7--7\-
B--|------------8--8\------------8--8\------------8--8\------------8--8\-
G--|------------7--7\------------7--7\------------7--7\------------7--7\-
D--|-----------------------------------5-5-5-5----------5-5-5-5----------
A--|-2-2-2-2----------2-2-2-2----------5-5-5-5----------5-5-5-5----------
E--|-0-0-0-0----------0-0-0-0----------3-3-3-3----------3-3-3-3----------
    In the distance   Day is dawning   But I'm already miles away

E--|--8---------8----------8\-----\5---------5----------5\--------
B--|--7---------7----------7\-----\7---------7----------7\--------
G--|--8---------8----------8\-----\7---------7----------7\--------
D--|----0-0-0-0---0-0-0-0----0-0-0---0-0-0-0---0-0-0-0----0-0-0---
A--|--------------------------------------------------------------
E--|--------------------------------------------------------------
                            Miles away

E--|-\3---------3-----------3------/8---\2--
B--|-\5---------5-----------5------/7---\3--
G--|-\5---------5-----------5------/8---\2--
D--|----0-0-0-0---0-0-0-0-0---0-0-0---0-----
A--|----------------------------------------
E--|----------------------------------------
                                   Yeah___

E--|--8---------8----------8\-----\5---------5----------5\--------
B--|--7---------7----------7\-----\7---------7----------7\--------
G--|--8---------8----------8\-----\7---------7----------7\--------
D--|----0-0-0-0---0-0-0-0----0-0-0---0-0-0-0---0-0-0-0----0-0-0---
A--|--------------------------------------------------------------
E--|--------------------------------------------------------------
                                     Miles    Miles   Away

E--|-\3---------3-----------3------/8---\2--
B--|-\5---------5-----------5------/7---\3--
G--|-\5---------5-----------5------/8---\2--
D--|----0-0-0-0---0-0-0-0-0---0-0-0---0-----
A--|----------------------------------------
E--|----------------------------------------

E--|--8---------8----------8\-----\5---------5----------5\--------
B--|--7---------7----------7\-----\7---------7----------7\--------
G--|--8---------8----------8\-----\7---------7----------7\--------
D--|----0-0-0-0---0-0-0-0----0-0-0---0-0-0-0---0-0-0-0----0-0-0---
A--|--------------------------------------------------------------
E--|--------------------------------------------------------------
                                     Miles               Away

E--|-\3---------3-----------3------/8---\2--
B--|-\5---------5-----------5------/7---\3--
G--|-\5---------5-----------5------/8---\2--
D--|----0-0-0-0---0-0-0-0-0---0-0-0---0-----
A--|----------------------------------------
E--|----------------------------------------

E--|--8---------8----------8\-----\5---------5----------5\--------
B--|--7---------7----------7\-----\7---------7----------7\--------
G--|--8---------8----------8\-----\7---------7----------7\--------
D--|----0-0-0-0---0-0-0-0----0-0-0---0-0-0-0---0-0-0-0----0-0-0---
A--|--------------------------------------------------------------
E--|--------------------------------------------------------------
      Miles miles away                       

E--|-\3---------3-----------3------/8---\2---/8---\2---/8---\2---
B--|-\5---------5-----------5------/7---\3---/7---\3---/7---\3---
G--|-\5---------5-----------5------/8---\2---/8---\2---/8---\2---
D--|----0-0-0-0---0-0-0-0-0---0-0-0---0--------------------------
A--|-------------------------------------------------------------
E--|-------------------------------------------------------------
  Oooh yeah                         away     away     away

E--|-1---------1------1-----1-----1------------------------------0-----
B--|------5--------5-----------5-----------------------------0---------
G--|----5----5-----------5------------5-------------------0------------
D--|---------------------------------------------------2---------------
A--|------------------------------------------------2------------------
E--|---------------------------------------------0---------------------
                                                        And the rain comes down