Tabulature for "Wishing Well"
Off the album "Fight For The Rock"
Written by Free
Performed by Savatage

Transcribed by Asil Mumcu mumcu@rocketmail.com

Drum intro

e|-------------------------------------------------------
B|-------------------------------------------------------
G|--------------------------------------------------3----
D|--3--1----------------------------3--1------------3----
A|--------3--1~~----3--1------------------3--1~~----1----
E|------------------------4--1~~-------------------------
                  PM----|

e|-------------------------------------------------------
B|-------------------------------------------------------
G|--7fb~~r-----------------------------------------------
D|---------10----------10--10-8-------8------------------
A|----------8--------8----------10-8----10-9-8-----------
E|-------------------------------------------------------


e|------------------------------------------------------
B|------------------------------------------------------
G|------------------------------------------------------
D|--10---10---10---10----10---10---10---10--------------
A|---8----8----8----8-----8----8----8----8--------------
E|------------------------------------------------------
   Take off your hat   kick off your shoes

e|-------------------------------------------------------
B|-------------------------------------------------------
G|-------------------------------------------------------
D|--13----------------8------------10---10---10---10-----
A|--11----------------6-------------8----8----8----8-----
E|-------------------------------------------------------
   You know you ain't going anywhere

e|-------------------------------------------------------
B|-------------------------------------------------------
G|-------------------------------------------------------
D|--10---10---10---10----10---10---10---10---------------
A|---8----8----8----8-----8----8----8----8---------------
E|-------------------------------------------------------
  You spend all your time  singing your blues

e|-------------------------------------------------------
B|-------------------------------------------------------
G|-------------------------------------------------------
D|--13----------------8------------10--------------------
A|--11----------------6-------------8--------------------
E|-------------------------------------------------------
   You know you ain't going anywhere

e|-------------------------------------------------
B|-------------------------------------------------
G|-------------------------------------------------
D|--10----8-------10---10----10--10----------------
A|---8----6--------8----8-----8---8----------------
E|-------------------------------------------------
   You've always been a good friend of mine

e|-------------------------------------------------
B|-------------------------------------------------
G|-------------------------------------------------
D|--10----8----------10---10----10--10-------------
A|---8----6-----------8----8-----8---8-------------
E|-------------------------------------------------
   Your heart it bids farewell

e|-------------------------------------------------
B|-------------------------------------------------
G|-------------------------------------------------
D|--10--------8---------10---10----10--10----------
A|---8--------6----------8----8-----8---8----------
E|-------------------------------------------------
     The only time you're  satisfied


e|-----------------------------------------
B|-----------------------------------------
G|-----------------------------------------
D|--------------10----------------8--------
A|---------------8----------------6--------
E|-----------------------------------------
   Is with  your feet  in the     wishing  

e|-------------------------------------------------------
B|-------------------------------------------------------
G|--------------------------------------------------3----
D|--3--1----------------------------3--1------------3----
A|--------3--1~~----3--1------------------3--1~~----1----
E|------------------------4--1~~-------------------------
                  PM----|
  well 

e|----------------------------10fb~~--10p8h10--8-------------------
B|-----------------------------------------------10-8-10fbr-p8-----
G|--7fb~~r--6h7p6h7p6h7----------------------------------------9-7-
D|----------(Trill)-------10---------------------------------------
A|-------------------------8---------------------------------------
E|-----------------------------------------------------------------
                                   (I'm not sure about this lick)

e|------------------------------------------------------
B|------------------------------------------------------
G|------------------------------------------------------
D|--10---10---10---10----10---10---10---10--------------
A|---8----8----8----8-----8----8----8----8--------------
E|------------------------------------------------------
    Throw down your gun, you might shoot yourself

e|-------------------------------------------------------
B|-------------------------------------------------------
G|-------------------------------------------------------
D|--13------------------8------------10---10---10---10---
A|--11------------------6-------------8----8----8----8---
E|-------------------------------------------------------
   Or is that what you're trying to do?

e|------------------------------------------------------
B|------------------------------------------------------
G|------------------------------------------------------
D|--10---10---10---10----10---10---10---10--------------
A|---8----8----8----8-----8----8----8----8--------------
E|------------------------------------------------------
    Put up the fight you believe to be right

e|-------------------------------------------------------
B|-------------------------------------------------------
G|-------------------------------------------------------
D|--13-----------8-------------10------------------------
A|--11-----------6--------------8------------------------
E|-------------------------------------------------------
 And one day the sun will shine through

e|-------------------------------------------------
B|-------------------------------------------------
G|-------------------------------------------------
D|-10------------8-------10---10---10--10----------
A|--8------------6--------8----8----8---8----------
E|-------------------------------------------------
   You've always got something to hide

e|-------------------------------------------------
B|-------------------------------------------------
G|-------------------------------------------------
D|-10------------8-------10---10---10--10----------
A|--8------------6--------8----8----8---8----------
E|-------------------------------------------------
   Something you just can't tell

e|-------------------------------------------------
B|-------------------------------------------------
G|-------------------------------------------------
D|-10--------8---------10---10---10--10------------
A|--8--------6----------8----8----8---8------------
E|-------------------------------------------------
    The only time you're  satisfied

e|-----------------------------------------
B|-----------------------------------------
G|-----------------------------------------
D|--------------10----------------8--------
A|---------------8----------------6--------
E|-----------------------------------------
   Is with  your feet  in the     wishing  

e|-------------------------------------------------------
B|-------------------------------------------------------
G|--------------------------------------------------3----
D|--3--1----------------------------3--1------------3----
A|--------3--1~~----3--1------------------3--1~~----1----
E|------------------------4--1~~-------------------------
                  PM----|
  well yeah!

e|-----------------------------------
B|-----------------------------------
G|--7fb~~r---------------------------
D|--------10-----------------10-10---
A|---------8------------------8--8---
E|-----------------------------------

  Acoustic:                               (x3)                     Distortion
e|--------------------------------------------|--------------------------------
B|-----------8--------6-------6-----6---------|----------8-------6-------------
G|-o------10--------8-------8---8-----------o-|-------10-------8---------------
D|-o---10---------8-------8-------8---8-----o-|----10--------8-----10----------
A|---8----------6-------6---------------------|--8---------6--------8----------
E|--------------------------------------------|--------------------------------
     You know  what you're wishing for          Love in a peaceful  world, yeah
     Love in a peaceful world
     Love in a peaceful world

Solo:                  __3__     __3__         __3__      __3__
e|---10fb~rb~--10-12--10h12p10~-8h10p8-5~---7--7h8h10~---8h10h12---
B|-----------------------------------------------------------------
G|-----------------------------------------------------------------
D|-----------------------------------------------------------------
A|-----------------------------------------------------------------
E|-----------------------------------------------------------------
 ...I couldn't find out the rest of the solo.May be later I hope I can find
(Use verser riff2 for rhythm under solo)

e|-------------------------------------------------
B|-------------------------------------------------
G|-------------------------------------------------
D|--10----8-------10---10----10--10----------------
A|---8----6--------8----8-----8---8----------------
E|-------------------------------------------------
   You've always been a good friend of mine

e|-------------------------------------------------
B|-------------------------------------------------
G|-------------------------------------------------
D|--10----8----------10---10----10--10-------------
A|---8----6-----------8----8-----8---8-------------
E|-------------------------------------------------
   Your heart it bids farewell

e|-------------------------------------------------
B|-------------------------------------------------
G|-------------------------------------------------
D|--10--------8---------10---10----10--10----------
A|---8--------6----------8----8-----8---8----------
E|-------------------------------------------------
     The only time you're  satisfied

e|-----------------------------------------
B|-----------------------------------------
G|-----------------------------------------
D|--------------10----------------8--------
A|---------------8----------------6--------
E|-----------------------------------------
   Is with  your feet  in the     wishing  
                                                                (x4)
e|-----------------------------------------------------------------|
B|-----------------------------------------------------------------|
G|-o-------------------------------------------------------------o-|
D|-o-3--1---------------------------3--1-------------------------o-|
A|--------3--1~~----3--1------------------3--1~~----3--1-----------|
E|------------------------4--1~~--------------------------4--1~~---|
                  PM----|                         PM----|
  well      yeah!!
  No, everybody has a dream, yeah
  Oh no, no, no, oooh
  I wish you well, yeah
  I know, know
  All you're looking for is love

...fade out...

Well that's a good song for singing and playing.The solo is hard to
play.If anyone does better please send it to me :))
Asil Mumcu      31/08/98
mumcu@rocketmail.com