Tabulature for "When The Crowds Are Gone"
Off the album "Gutter Ballet"
Written by Savatage

Transcribed by Patrick van der Horst boudie@xoommail.com


Piano arranged for guitar
-3---3---3---3---3---3---3---3---3----3---3---3---3---3---3---3---5---5---5---
-3---3---3---3---3---3---3---3---3----3---3---3---3---3---3---3---6---6---5---
-8---8---8---8---8---8---8---8---8----8---8---8---8---8---8---8---5---5-------
------------------------------------------------------------------3-----------
---------------------------------3----------------3---------------------------
-------------------------------3----------------3-----------------------------
                                  I don't know... etc.                                             

---5---5---5-----5---5----3---3---3---3---3---3---3---3---3---3---3---3---5---
---5---4---4-----4---4----3---3---3---3---3---3---3---3---3---3---3---3---6---
-5---5---5---5------------8---8---8---8---8---8---8---8---8---8---8---8---5---
--------------------------------------------------------------------------3---
--------------------------3---------------3---------------3-------------------

----------------------------------------3---------------3---------------------
                 like faded... etc.                                                                      

-5---5---5---5---5---5---5-----3---3---3---3------------------------------------
-6---5---5---4---4---3---3-----3---3---3---3-----------------------------------
-5-----5---5---5---5---8---8---8---8------------------------------------------

------------------------------------------------------------------------------
-----------------------3------------------------------------------------------
------------------------------------------------------------------------------
      Please believe me, what I tell you is true                                                                        

------------------------------------------------------------------------------
--------------------------------6-8-6h8p6---6---------------------------------
-3---------------/10---\8---8-------------8-----7---7---\---------7---7-------
-3---------5-----/10---\8-------3-5-3h5p3---3---7---7---\---------7---7-------
-1-----0---5-----/-8---\6---6-------------6-----5---5---\---------5---5-------
-----------3------------------------------------------------5--8---------5--8-
 Where's the...etc.                                                                             

---------------------------
---------------------------
-7---7---5---7-------------
-7---7---5---7--------x\---
-5---5---3---5--------x\---
---------------------------
 The story's...etc.                                                                            

|-----------------------------------------------------------------------------
|-----------------------------------------------------------------------------
|------------5-8--7--5--------------------------------------------------------
|------5-7-8-----------8-7-7b-------------------/8--8-7-5--5--5h7p5-----------
|---------------------------------------------------------------------6^------
|-----------------------------------------------------------------------------
|                                                                             
|
|-----------------------------------------------------------------------------
|-----------------------------------------------------------------------------
|--------------------------8----10-10---12------------------------------------
|5-------------------------8----10-10---12------------------------------------
|5-------------------------6-----8--8---10------------------------------------
|3----------------------------------------------------------------------------

----------------
----------------
-7---7---5---7--
-7---7---5---7--
-5---5---3---5--
----------------
                                                                              

------------------------------------------------------------------------------
------------------------------------------------------------------------------
-5-5---------5-5---------5-5---------5-5---------10h12p10\9-9h10p9\8-8h10p8\8-
-5-5---------5-5---------5-5---------5-5--------------------------------------
-3-3---------3-3---------3-5---------3-3---3/8----8h10p8\7--7h8p7\6--6h8p6\5--
---------3-6---------3-6---------3-6------------------------------------------
All my friends...etc.                                                         

-------------
-------------
-5-5---------
-5-5---------
-3-3---------
---------3-6-

------------------------------------------------------------------------------

------------------------------------------------------------------------------
-5-5---------5-5---------5-5---------5-5---------10h12p10\9-9h10p9\8-8h10p8\8-
-5-5---------5-5---------5-5---------5-5--------------------------------------
-3-3---------3-3---------3-5---------3-3---3/8----8h10p8\7--7h8p7\6--6h8p6\5--
---------3-6---------3-6---------3-6------------------------------------------
But I'm still...etc.

-------------------------
-------------------------
-5-5---------5---5-------
-5-5---------5---5-------
-3-3---------3---3--/15\-
---------3-6-------------

------------------------------------------------------------------------------
--------------------------------6-8-6h8p6---6---------------------------------
-3---------------/10---\8---8-------------8-----7---7---\---------7---7-------
-3---------5-----/10---\8-------3-5-3h5p3---3---7---7---\---------7---7-------
-1-----0---5-----/-8---\6---6-------------6-----5---5---\---------5---5-------
-----------3------------------------------------------------5--8---------5--8-
 Where's the...etc.                                                                             

---------------------------
---------------------------
-7---7---5---7-------------
-7---7---5---7--------x\---
-5---5---3---5--------x\---
---------------------------
 The story's...etc.                                                                            

|-----------------------------------------------------------------------------
|-----------------------------------------------------------------------------
|------------5-8--7--5--------------------------------------------------------
|------5-7-8-----------8-7-7b-------------------/8--8-7-5--5--5h7p5-----------
|---------------------------------------------------------------------6^------
|-----------------------------------------------------------------------------
|                                                                             
|
|-----------------------------------------------------------------------------
|-----------------------------------------------------------------------------
|--------------------------8----10-10---12---------------------------------7--
|5-------------------------8----10-10---12---------------------------------7--
|5-------------------------6-----8--8---10---------------------------------5--
|3----------------------------------------------------------------------------


Rhythm part for under solo
------------------------------------------------------------------------------
------------------------------------------------------------------------------
-2------7-----7-7\--2------7-----7-7\--2------7-----7-7\--2------7------------

-2------7-----7-7\--2------7-----7-7\--2------7-----7-7\--2------7------------
-0------5-----5-5\--0------5-----5-5\--0------5-----5-5\--0------5------------
------------------------------------------------------------------------------
                                                                              
Riff for under solo
______________________________________  ____
[1.2.3.                                    [4.
------------------------------------------|-----
------------------------------------------|-----
-------------12--11----12-12\11-11\9-9\7-7|-11--
-7-----9-10-------------------------------|-----
------------------------------------------|-----
------------------------------------------|-----
                                                                              
Solo
|17-----------17-19-20-19h20-20b22--------r20--20p19---17---20p17-------------
|-------20b22-----------------------------------------------------17---\------
|-----------------------------------------------------------------------------
|-----------------------------------------------------------------------------
|-----------------------------------------------------------------------------
|-----------------------------------------------------------------------------
|                                                                            
|
|---------------12h13p12------------------------------------------------------
|---------12-13----------15---------8^--------------13p12-10---13p12-10-------
|-------------------------------7b9----7b9--7b9r7/----------------------------
|------14---------------------------------------------------------------------
|12-15------------------------------------------------------------------------
|-----------------------------------------------------------------------------
|                                                                             
|
|-----------------------------------------------------------------------------
|8-10-8-7-8-7---7----------15b17r15--15p13-13p12-12\--------------------------

|-------------9---9-7---------------------------------------------------------
|-----------------------------------------------------------------------------
|------------------------0-----------------------------------5h7h8p7p5--------
|------------------------------------------------------5h7h8------------------
|                                                                             
|
|-----------------------------------------------------------------------------
|-----------------------------------------------------------------------------
|-------------------------------------7h9h10p9p7-----------7h9h10p7h9h10/12---
|-----------------------7h9h10p7h9h10------------10p7h9h10--------------------
|----------5h7h8p7h8/10-------------------------------------------------------
|8p7p5h7h8--------------------------------------------------------------------
|                                                                             
|
|---------------10h12h13p12p10h13p12------------------------------------------
|10h13p10h12h13----------------------13b15------------------------------------
|-----------------------------------------------------------------------------
|---------------------------------------------x\------------------------------
|---------------------------------------------x\------------------------------
|-----------------------------------------------------------------------------
                                                                              
-------------------------------------
-------------------------------------
-3-------------/10\---8----10-10--10-
-3--------5----/10\---8----10-10--10-
-1----0---5----/-8\---6-----8--8---8-
----------3--------------------------
When the crowds...etc.

-------------------------------------
-------------------------------------
-3-------------/10\---8----10-10--10-
-3--------5----/10\---8----10-10--10-
-1----0---5----/-8\---6-----8--8---8-
----------3--------------------------
Turn 'em on...etc.

|------------------------------------
|------------------------------------
|3-------------/10\---8----10-10--10-
|3--------5----/10\---8----10-10--10-
|1----0---5----/-8\---6-----8--8---8-
|---------3--------------------------
|wanted to know...etc.
|Play this fill 23 times, fast!!
|------------------------------------------------
|------------------------------------------------
|------------------------------------------------
|15-12-------15-12-------15-13-------15-13-------

|------15-13-------15-13-------15-12-------15-12-
|------------------------------------------------
 
-------------------------------------
-------------------------------------
-3-------------/10\---8----10-10--10-
-3--------5----/10\---8----10-10--10-
-1----0---5----/-8\---6-----8--8---8-
----------3--------------------------
plot and plan...etc.

-------------------------------------
-------------------------------------
-3-------------/10\---8----10-10--10-
-3--------5----/10\---8----10-10--10-
-1----0---5----/-8\---6-----8--8---8-
----------3--------------------------
pay...etc.

-------------------------------------
-------------------------------------
-3-------------/10\---8----10-10--10-
-3--------5----/10\---8----10-10--10-
-1----0---5----/-8\---6-----8--8---8-
----------3--------------------------
Turn 'em...etc.

-------------------------------------
-------------------------------------
-3-------------/10\---8----10-10--10-
-3--------5----/10\---8----10-10--10-
-1----0---5----/-8\---6-----8--8---8-
----------3--------------------------
wanted to know...etc.

-------------------------------------
-------------------------------------
-3-------------/10\---8----10--------
-3--------5----/10\---8----10--------
-1----0---5----/-8\---6-----8--------
----------3--------------------------
                                                                             
Outro.
-10----10----10----10----10----10----10----8----6----6----8----8--------------
-11----11----11----11----11----11----11---10----8----8---10---10--------------
-10----10----10----10----12----12----12---10----8----8----8----8--------------
------------------------------------------------------------------------------
------------------------------------------------------------------------------
------------------------------------------------------------------------------
  And the lights...etc.                                                      

-------10----11-10-------13-11-10----------------------------------------11---
-11-13----13-------13-11----------13-11-13-11-10----10-11-10-13-11-10---------
-------------------------------------------------12-------------------12------
------------------------------------------------------------------------------
--------------------------------------------------------------------------6---
--6-----------------------------------------------3---------------------------
                                                                              

-10-------------------11-10-------11-10-------13-11-10------------------------
----13-11-10-11----11-------13-11-------13-11----------13-11-13-11-10---11----
----------------12------------------------------------------------------10----
------------------------------------------------------------------------12----
-----------------------------------------------8-------------------------6----
------------------------------------------------------------------------------