#----------------------------------PLEASE NOTE---------------------------------#
#This file is the author's own work and represents their interpretation of the #
#song. You may only use this file for private study, scholarship, or research. #
#------------------------------------------------------------------------------#

================================================================================
         Title : When the Crowds Are Gone Solo
        Artist : Savatage
         Album : Gutter Ballet
Transcribed by : Christian Randall CHVYMETL@aol.com
================================================================================

Legend
------

 h  = hammer-on
 p  = pull-off
 b  = bend
 r  = bend release
 /  = slide up/down
<5> = natural harmonic
[5] = artifical harmonic
 ~  = vibrato
 tr = trill





E|--17-------------------------17--19--20--19h20--|--20b22------------
B|--------------------20b22-----------------------|-------------------
G|------------------------------------------------|-------------------
D|------------------------------------------------|-------------------
A|------------------------------------------------|-------------------
E|------------------------------------------------|-------------------





E|--------r--|--20p19----17~~--20p17------------------------------12h13p
B|-----------|------------------------17~~----------------12--13--------
G|-----------|----------------------------------------------------------
D|-----------|----------------------------------------14----------------
A|-----------|--------------------------------12--15--------------------
E|-----------|----------------------------------------------------------





E|--12----|----------------------------------------------|---------------
B|--------|------15~~--------\-------{8}-----------------|----13p12--10~~
G|--------|-------------------7b9---------7b9----7b9----r|---------------
D|--------|----------------------------------------------|---------------
A|--------|----------------------------------------------|---------------
E|--------|----------------------------------------------|---------------





E|---------------------------------------------------|------------------
B|----13p12--10~~------------------------------------|------------------
G|-----------------------8--10--8--7--8--7-----7-----|-----------15b17--
D|------------------------------------------9-----9--|--7~~-------------
A|---------------------------------------------------|------------------
E|---------------------------------------------------|------------------





E|----------------------------|---------------------------------------
B|----------------------------|---------------------------------------
G|------r--15p13--13p12--12\--|---------------------------------------
D|----------------------------|---------------------------------------
A|----------------------------|---------5h7h8p7p5-------------5h7h8p7h
E|----------------------------|--5h7h8-------------8p7p5h7h8----------





E|---------------------------------------------------------------------
B|------------------------------------------------------------------10h
G|------------------------7h9h10h9h7-------------7h9h10--7h9h10/12-----
D|--------7h9h10--7h9h10--------------10p7h9h10------------------------
A|--8/10---------------------------------------------------------------
E|---------------------------------------------------------------------





E|---------------10h12h13p12p10h13p10--|---------
B|--13p10h12h13------------------------|--13b15--
G|-------------------------------------|---------
D|-------------------------------------|---------
A|-------------------------------------|---------
E|-------------------------------------|---------