#----------------------------------PLEASE NOTE---------------------------------#
#This file is the author's own work and represents their interpretation of the #
#song. You may only use this file for private study, scholarship, or research. #
#------------------------------------------------------------------------------#

================================================================================
         Title : Gutter Ballet Solo
        Artist : Savatage
         Album : Gutter Ballet
Transcribed by : Christian Randall CHVYMETL@aol.com
================================================================================

Legend
------

 h  = hammer-on
 p  = pull-off
 b  = bend
 r  = bend release
 /  = slide up/down
<5> = natural harmonic
[5] = artifical harmonic
 ~  = vibrato
 tr = trill





E|--------------|--------------|----------------------------|----------
B|----------15--|--13~~--10h11p|--10~~----------------------|----------
G|--------------|--------------|--------12--10\9----9h10p9--|----------
D|--------------|--------------|----------------------------|--12~~----
A|--------------|--------------|----------------------------|----------
E|--------------|--------------|----------------------------|----------





E--------------------------10h12h13p12p10--12p10-----------------10h12h
B----13p10h12h13p10h12h13-------------------------13p10h12h13----------
G----------------------------------------------------------------------
D----------------------------------------------------------------------
A----------------------------------------------------------------------
E----------------------------------------------------------------------





E--|--13p12p10---------------10h12h13p12p10--12p10------10--12--13--13--
B--|------------13p10h12h13-------------------------13------------------
G--|--------------------------------------------------------------------
D--|--------------------------------------------------------------------
A--|--------------------------------------------------------------------
E--|--------------------------------------------------------------------





E|----13b17--13--13--13--13--13--13--13--|--13r13--13--13--13--13--13--
B|---------------------------------------|-----------------------------
G|---------------------------------------|-----------------------------
D|---------------------------------------|-----------------------------
A|---------------------------------------|-----------------------------
E|---------------------------------------|-----------------------------





E|--13--13--13--13--12b13----r--b1--r--12h13p12p10h12p10------10------
B|--------------------------------------------------------13------14--
G|--------------------------------------------------------------------
D|--------------------------------------------------------------------
A|--------------------------------------------------------------------
E|--------------------------------------------------------------------



                                    W/Bar              Dive w/bar

E|---------------------------------------------------------------------
B|--12--10--------------------------------------{3}--------------------
G|----------12--10--10--9--10--9---------------------------------------
D|--------------------------------12--10~~-----------------------------
A|---------------------------------------------------------------------
E|---------------------------------------------------------------------





E|------------|------------17--22~~----------17--22--22----22--22--22--
B|------------|--------18----------------18----------------------------
G|------------|----19----------------19--------------------------------
D|------------|--------------------------------------------------------
A|------------|--------------------------------------------------------
E|------------|--------------------------------------------------------





E--|------r22--20--22~~------(22)\----------12--13--15p13p12h13p12-----
B--|------------------------------------12--------------------------15p
G--|--------------------------------12---------------------------------
D--|-------------------------------------------------------------------
A--|-------------------------------------------------------------------
E--|-------------------------------------------------------------------





E|------12---------------------------------------------------------------
B|--12------15p13p12h13p12------12---------------------------------------
G|--------------------------14------12--10h12p10p9h10--12p10p9h10p9------
D|-------------------------------------------------------------------12--
A|-----------------------------------------------------------------------
E|-----------------------------------------------------------------------





E|-----------|---------------------------------------------------------
B|-----------|-----------------------------------10h13p10-----------10h
G|--9--------|--------------------9h10h12p10h12------------12b13-------
D|-----12----|--9h10h12--9h10h12---------------------------------------
A|-----------|---------------------------------------------------------
E|-----------|---------------------------------------------------------



                              Piano Interlude

E|-------------10-----------------|--10--------------8--------------12--
B|--13p10----------10--13b15------|------11------11-----10------10------
G|---------12---------------------|----------10-------------10----------
D|--------------------------------|-------------------------------------
A|--------------------------------|-------------------------------------
E|--------------------------------|-------------------------------------





E|--------------10--------------|-----------------------------15--15b16--
B|--13------13------12------12--|--13------r13~~--------13---------------
G|------12--------------12------|--------------------x-------------------
D|------------------------------|-----------------x----------------------
A|------------------------------|----------------------------------------
E|------------------------------|----------------------------------------





E|--15b17--15--15--15--15r---------------------------|----
B|----------------------------15~~------15\----------|----
G|---------------------------------------------------|----
D|---------------------------------------------------|----
A|---------------------------------------------------|----
E|---------------------------------------------------|----