Tabulature for "Gutter Ballet---Bass Tab"
Off the album "Gutter Ballet"
Written by Savatage

Transcribed by Patrick van der Horst boudie@xoommail.com

Intro: mess with the timing, of course!
------------------------------------------------------------------------------
------------------------------------------------------------------------------
-1--------3--------1---------3------------------------------------------------
---3--------5--------3---------5------0------0------0------0------------------
                                                                              

------------------------------------------------------------------------------
------------------------------------------------------------------------------
------------------------------------------------------------------------------
-0---0---0---0---0---0---0--00--0-0---0---0---0---0---0---0-0-0-0-------------
                                                                              

------------------------------------------------------------------------------
------------------------------------------------------------------------------
--------------------------------------------------------------------------0-3-
-0---0---0---0---0---0---0--00--0-0---0---0---0---0---0---00-0--000--5--------
                                                                              

------------------------------------------------------------------------------
------------------------------------------------------------------------------
-5----0-3-5--------0-3-5-----3-5-3-----3-5-1-----0-3-5-----0-3-5--------0-3-5-
--------------0----------------------------------------------------0----------
 Another sleepless night.... etc.                                                                            

------------------------------------------------------------------------------
------------------------------------------------------------------------------
-3-5-3-----3-5-1---1---1---1-3---0---0---7\-----------------------------------
------------------------------------------------------------------------------
                                                                              

------------------------------------------------------------------------------
--------------------------------------------------7--65-----------------------
-5-------3-------5--------3---1---1---1---1---0--------53----5-------3--------
-----0-0-----0-0------0-0----------------------------------------0-0-----0-0--
                                 It's a Gutter Ballet...etc                                                                            

------------------------------------------------------------------------------
---------------------------------7---5/7--------------------------------------
-5-------3---1---1---1---1---0-----------5--5--------3--------5--------3---1--
-----0-0-----------------------------------------0-0------0-0------0-0--------
                                                                              

------------------------------------------------------------------------------
------------------------------------------------------------------------------
---1-1-1---1---0--------------------------------------------------------------
----------------------12\---0---0---0---0---0---3----5-------------5~~/15~~~\-
                                                                              

------------------------------------------------------------------------------
------------------------------------------------------------------------------
-----5---5555---3353---5-533-----55----5555-----------------------------------
-0000--------------------------88--8-------8----8757--8757----7---7-----------
                                                                              
------------------------------------------------------------------------------
------------------------------------------------------------------------------
-----5---5555---3353---5-533-----55----5555-----------------------------------
-0000--------------------------88--8-------8----8757--8757----7---7-----------
                                                                              
------------------------------------------------------------------------------
------------------------------------------------------------------------------
-5----0-3-5--------0-3-5-----3-5-3-----3-5-1-----0-3-5-----0-3-5--------0-3-5-

--------------0----------------------------------------------------0----------
 Balanced on their knives...etc.                                                                            

------------------------------------------------------------------------------
------------------------------------------------------------------------------
-3-5-3-----3-5-1---1---1---1-3---0---0---7\-----------------------------------

------------------------------------------------------------------------------
                                                                              

------------------------------------------------------------------------------
--------------------------------------------------7--65-----------------------
-5-------3-------5--------3---1---1---1---1---0--------53----5-------3--------
-----0-0-----0-0------0-0----------------------------------------0-0-----0-0--
                                 It's a Gutter Ballet...etc                                                                            

------------------------------------------------------------------------------
---------------------------------7---5/7--------------------------------------
-5-------3---1---1---1---1---0-----------5--5--------3--------5--------3---1--
-----0-0-----------------------------------------0-0------0-0------0-0--------
                                                                              

------------------------------------------------------------------------------
------------------------------------------------------------------------------
---1-1-1---1---0--------------------------------------------------------------
----------------------12\---0---0---0---0---0---3----5-------------5~~/15~~~\-
                                                                              

------------------------------------------------------------------------------
------------------------------------------------------------------------------
-----5---5555---3353---5-533-----55----5555-----------------------------------
-0000--------------------------88--8-------8----8757--8757----7---7-----------
                                                                              
------------------------------------------------------------------------------
------------------------------------------------------------------------------
-----5---5555---3353---5-533-----55----5555-----------------------------------
-0000--------------------------88--8-------8----8757--8757----7---7-----------
 
Bass-riff for under Guitar-solo.
------------------------------------------------------------------------------
------------------------------------------------------------------------------
---55--55--55---5----55--55--55---5----55--55--55---5-----5---55--55--55----5-
-0---0---0---0-----0---0---0---0-----0---0---0---0-----0----0---0---0----0----
                                                                              
------------------------------------------------------------------------------
------------------------------------------------------------------------------
---55--55--55---5----55--55--55---5----55--55--55---5-----5---55--55--55----5-
-0---0---0---0-----0---0---0---0-----0---0---0---0-----0----0---0---0----0----

------------------------------------------------------------------------------
------------------------------------------------------------------------------
-1--------3---------1---------3----------55--55--55---5----55---55---55----5--
-----3---------5---------3---------5---0---0---0---0-----0----0----0----0-----
                                                                              
------------------------------------------------------------------------------
------------------------------------------------------------------------------
---55--55--55---5----55--55--55---5--1-------3-------1-------3-------1------3-
-0---0---0---0-----0---0---0---0---------3-------5-------3-------5-------3----

------------------------------------------------------------------------------
------------------------------------------------------------------------------
-1-------3-----------0-3------------------------------------------------------
-----3-------5~~~-------------------------------------------------------------

------------------------------------------------------------------------------
------------------------------------------------------------------------------
-5----0-3-5--------0-3-5-----3-5-3-----3-5-1-----0-3-5-----0-3-5--------0-3-5-
--------------0----------------------------------------------------0----------
 The Jester takes his bows...etc.                                                                            

------------------------------------------------------------------------------
------------------------------------------------------------------------------
-3-5-3-----3-5-1---1---1---1-3---0---0---7\-----------------------------------
------------------------------------------------------------------------------
                                                                              

------------------------------------------------------------------------------
--------------------------------------------------7--65-----------------------
-5-------3-------5--------3---1---1---1---1---0--------53----5-------3--------
-----0-0-----0-0------0-0----------------------------------------0-0-----0-0--
                                 It's a Gutter Ballet...etc                                                                            

------------------------------------------------------------------------------
---------------------------------7---5/7--------------------------------------
-5-------3---1---1---1---1---0-----------5--5--------3--------5--------3---1--
-----0-0-----------------------------------------0-0------0-0------0-0--------

                                                                              

------------------------------------------------------------------------------

------------------------------------------------------------------------------
---1-1-1---1---0--------------------------------------------------------------
----------------------12\---0---0---0---0---0---3----5-------------5~~/15~~~\-
                                                                              

------------------------------------------------------------------------------
------------------------------------------------------------------------------
-----5---55555---3-333---33333-----55-----------------------------------------
-0-00---------------------------0-000---00000-0/7------5---3---2--------------
                                                                              

------------------------------------------------------------------------------
------------------------------------------------------------------------------
-----5---55555---3-333---33333-----55-----------------------------------------
-0-00---------------------------0-000---00000-0/7------5---3---2--------------

 
------------------------------------------------------------------------------

------------------------------------------------------------------------------
-----5---55555---3-333---33333-----55-----------------------------------------
-0-00---------------------------0-000---00000-0/7------5---3---2--------------

------------------------------------------------------------------------------
------------------------------------------------------------------------------
------------------------------------------------------------------------------
-0-000---00000---8757---8757--7--7---8757---8757--7--7---8757---8757--7--7--0-