#----------------------------------PLEASE NOTE---------------------------------#
#This file is the author's own work and represents their interpretation of the #
#song. You may only use this file for private study, scholarship, or research. #
#------------------------------------------------------------------------------#

================================================================================
         Title : Hounds (song is incomplete)
        Artist : Savatage
         Album : Gutter Ballet
Transcribed by : (UNKNOWN) IF you are the author to this tab please let me know.
================================================================================

Legend
------

 h  = hammer-on
 p  = pull-off
 b  = bend
 r  = bend release
 /  = slide up/down
<5> = natural harmonic
[5] = artifical harmonic
 ~  = vibrato
 tr = trill


Hounds

                   |               |               |               | 
       |   |   |   |   |   |   |   |   |   |   |   |   |   |   |   | 
E-|----------------------------------------------------------------| 
B-|----------------------------------------------------------------| 
G-|----0---------4-----0---------4---------------4---------------4-|
D-|--4---5---4-------4---5---4---------4-5---4---------4-5---4-----|
A-|2---------------2-----------------2---------------2-------------| 
E-|--------------------------------0---------------0---------------| 



                   |               |               |               | 
       |   |   |   |   |   |   |   |   |   |   |   |   |   |   |   | 
E-|----------------------------------------------------------------| 
B-|----------------------------------------------------------------| 
G-|----0---------4-----0---------4---------------4---------------4-|
D-|--4---5---4-------4---5---4---------4-5---4---------4-5---4-----|
A-|2---------------2-----------------2---------------2-------------| 
E-|--------------------------------0---------------0---------------| 
  Sun sets    on the moor         The cries of the hounds live forever more


                   |               |               |               | 
       |   |   |   |   |   |   |   |   |   |   |   |   |   |   |   | 
E-|----------------------------------------------------------------| 
B-|----------------------------------------------------------------| 
G-|----0---------4-----0---------4---------------4---------------4-|
D-|--4---5---4-------4---5---4---------4-5---4---------4-5---4-----|
A-|2---------------2-----------------2---------------2-------------| 
E-|--------------------------------0---------------0---------------| 
   Stalking the night             They roam the countryside  Till morning's 


                   |               |
       |   |   |   |   |   |   |   |
E-|---------------------------------
B-|---------------------------------
G-|----------------0-0-0-22-2-2-2-4-
D-|4---------------0-0-0-22-2-2-2-4-
A-|4-4-4-4-4-4-4-4-5-----00-0-0-0---
E-|2-2-2-2-2-2-2-2-3-3-3------------
   Light



                                   |                               |
           |       |       |       |       |       |       |       |     
E-|-----------------------------------------------------------------
B-|-----------------------------------------------------------------
G-|4-------4-----------7-------9-------9---9------------------------
D-|4-------4-----------7-------9-------9---9------------------------
A-|2-------2-------X---5-------7-------7---7-------109-10-----------
E-|------------------------X---0-------0---0----------------109-10--
                                   Do you hear the hounds they call


                                   |                               |
           |       |       |       |       |       |       |       |     
E-|-----------------------------------------------------------------
B-|-----------------------------------------------------------------
G-|4-------4-----------7-------9-------9---9------------------------
D-|4-------4-----------7-------9-------9---9------------------------
A-|2-------2-------X---5-------7-------7---7-------9-8-9-----------
E-|------------------------X---0-------0---0----------------109-10--
                                    Scan the dark, Eyes aglow


                                   |                               |
           |       |       |       |       |       |       |       |     
E-|-----------------------------------------------------------------
B-|-----------------------------------------------------------------
G-|4-------4-----------2---------------9---9------------------------
D-|4-------4-----------2-------2-------9---9------------------------
A-|2-------2-------X---0-------2-------7---7-------109-10-----------
E-|------------------------X---0-------0---0----------------109-10--
                                     Through the bitter rain and cold



                                   |                               |
           |       |       |       |       |       |       |       |     
E-|-----------------------------------------------------------------
B-|-----------------------------------------------------------------
G-|4-------4-----------7-------9-------9---9------------------------
D-|4-------4-----------7-------9-------9---9------------------------
A-|2-------2-------X---5-------7-------7---7-------9-7-9-----------
E-|------------------------X---0-------0---0----------------109-10--
                               They hunt you down    hunt you   down


                                   |                               |
           |       |       |       |       |       |       |       |     
E-|-----------------------------------------------------------------
B-|-----------------------------------------------------------------
G-|-----------------h------------4~~~~~~~------h---4--------h-p-----
D-|--------4------4 ^5---4-------------------4 ^5------5---4^5^4----
A-|-----------2-2------------2-2---------2-2----------------------5-
E-|7~~~~~~~---------------------------------------------------------


                                   |                               |
           |       |       |       |       |       |       |       |     
E-|-------------------------------------------------------------------
B-|-------------------------------------------------------------------
G-|-------/12------11\ 7---------9------------------------------------
D-|2------------------------------------------------------------------
A-|2------/10------9 \ 5---------7-----7-9-10-9-10-12-10-9---10-9-7---
E-|0-------------------------------------------------------10-------7-
  |                                            h  p
E-|------------------------------------10'-(10)7^10^7-7---------------
B-|--------------------------------------------------9-10'~~~~~~------   
G-|-------------------------------------------------------------------
D-|--------------------------------------------------------------7\---
A-|-------------------------------------------------------------------
E-|-------------------------------------------------------------------

                                   |                               |
           |       |       |       |       |       |       |       |     
E-|-----------------------------------------------------------------
B-|-----------------------------------------------------------------
G-|-----------------h------------4~~~~~~~------h---4--------h-p-----
D-|--------4------4 ^5---4-------------------4 ^5------5---4^5^4----
A-|-----------2-2------------2-2---------2-2----------------------5-
E-|7~~~~~~~---------------------------------------------------------
            They run wild and free        'cross the fields and val-
 
                                   |                               |
           |       |       |       |       |       |       |       |     
E-|-------------------------------------------------------------------
B-|-------------------------------------------------------------------
G-|-------/12------11\ 7---------9------------------------------------
D-|2------------------------------------------------------------------
A-|2------/10------9 \ 5---------7-----7-9-10-9-10-12-10-9---10-9-7---
E-|0-------------------------------------------------------10-------7-
  -leys                     of their   Native lands.


                                   |                               |
           |       |       |       |       |       |       |       |     
E-|-----------------------------------------------------------------
B-|-----------------------------------------------------------------
G-|-----------------h------------4~~~~~~~------h---4--------h-p-----
D-|--------4------4 ^5---4-------------------4 ^5------5---4^5^4----
A-|-----------2-2------------2-2---------2-2----------------------5-
E-|7~~~~~~~---------------------------------------------------------
            Nature's  beasts                deranged          beyond     

                                   |                               |
           |       |       |       |       |       |       |       |     
E-|-------------------------------------------------------------------
B-|-------------------------------------------------------------------
G-|-------/12------11\ 7---------9------------------------------------
D-|2------------------------------------------------------------------
A-|2------/10------9 \ 5---------7-----7-9-10-9-10-12-10-9---10-9-7---
E-|0-------------------------------------------------------10-------7-
   Belief                no one      understands


                   |               |
       |   |   |   |   |   |   |   |
E-|---------------------------------
B-|---------------------------------
G-|----------------0-0-0-22-2-2-2-4-
D-|4---------------0-0-0-22-2-2-2-4-
A-|4-4-4-4-4-4-4-4-5-----00-0-0-0---
E-|2-2-2-2-2-2-2-2-3-3-3------------


                                   |                               |
           |       |       |       |       |       |       |       |     
E-|-----------------------------------------------------------------
B-|-----------------------------------------------------------------
G-|4-------4-----------7-------9-------9---9------------------------
D-|4-------4-----------7-------9-------9---9------------------------
A-|2-------2-------X---5-------7-------7---7-------109-10-----------
E-|------------------------X---0-------0---0----------------109-10--
                                   Do you hear the hounds they call


                                   |                               |
           |       |       |       |       |       |       |       |     
E-|-----------------------------------------------------------------
B-|-----------------------------------------------------------------
G-|4-------4-----------7-------9-------9---9------------------------
D-|4-------4-----------7-------9-------9---9------------------------
A-|2-------2-------X---5-------7-------7---7-------9-8-9-----------
E-|------------------------X---0-------0---0----------------109-10--
                                    Scan the dark, Eyes aglow

                                   |                               |
           |       |       |       |       |       |       |       |     
E-|-----------------------------------------------------------------
B-|-----------------------------------------------------------------
G-|4-------4-----------2---------------9---9------------------------
D-|4-------4-----------2-------2-------9---9------------------------
A-|2-------2-------X---0-------2-------7---7-------109-10-----------
E-|------------------------X---0-------0---0----------------109-10--
                                     Through the bitter rain and cold



                                   |                               |
           |       |       |       |       |       |       |       |     
E-|-----------------------------------------------------------------
B-|-----------------------------------------------------------------
G-|4-------4-----------7-------9-------9---9------------------------
D-|4-------4-----------7-------9-------9---9------------------------
A-|2-------2-------X---5-------7-------7---7-------9-7-9-----------
E-|------------------------X---0-------0---0----------------109-10--
                               They hunt you down    hunt you   


                   |               |               |               | 
       |   |   |   |   |   |   |   |   |   |   |   |   |   |   |   | 
E-|----------------------------------------------------------------| 
B-|----------------------------------------------------------------| 
G-|----0---------4-----0---------4---------------4---------------4-|
D-|--4---5---4-------4---5---4---------4-5---4---------4-5---4-----|
A-|2---------------2-----------------2---------------2-------------| 
E-|--------------------------------0---------------0---------------| 
   Down                     they hunt you down

                   |               |               |               | 
       |   |   |   |   |   |   |   |   |   |   |   |   |   |   |   | 
E-|----------------------------------------------------------------| 
B-|----------------------------------------------------------------| 
G-|----0---------4-----0---------4---------------4---------------4-|
D-|--4---5---4-------4---5---4---------4-5---4---------4-5---4-----|
A-|2---------------2-----------------2---------------2-------------| 
E-|--------------------------------0---------------0---------------| 
  |                                            
E-|-----------------------------------------------------------------
B-|-----------------------------------------------------------------
G-|-----------------------------------------------------------------
D-|-----------------------------------------------------------5-4---
A-|--------------------------------------------------------------5-4
E-|-----------------------------------------------------------------
AHHHH!!                                            They hunt you down


                                       |                              |
            |        |        |        |       |       |       |      |     
E-|--------------------------------------------------------------------
B-|--------------------------------------------------------------------
G-|------------------------------------7-------7-------5-------5-------
D-|------------------------------------7-------7-------5-------5-------
A-|4---4---4---4---4---4---4---4---4---5---5-5-5---5-5-3---3-3-3---3-3-
E-|2---2---2---2---2---2---2---2---2-----------------------------------              

                                   |                              |
           |       |       |       |       |       |       |      |     
E-|---------------------------------------------------------------
B-|---------------------------------------------------------------
G-|--------4---------------4---------------4----------------------
D-|4-------4-------4-------4-------4-------4-------4--------------
A-|0^2-2-2-2---2-2-0^2-2-2-2---2-2-0^2-2-2-2---2-2-0^2-2-2-9\-----
E-|---------------------------------------------------------------        
  |
E-|-----------------------------------------------------------------
B-|-----------------------------------------------------------------
G-|------------------------------------------------------------4'(4)
D-|-----------------------------------------------------------------
A-|-----------------------------------------------------------------
E-|-----------------------------------------------------------------
  
(guitar solo)
                                   |
           |       |       |       |       |       |       |      |     
E-| ---------------------------------------------------------------- |
B-| ---------------------------------------------------------------- |
G-|o---------------h--4--p---p---------------------h--4-----7---9---o|
D-|o--------4-----4^5---5^2-4^2---2---------4-----4^5---5---7---9---o|
A-| ----------------------------5----h----------------------5---7--- |
E-| 0^2-----------------------------0^2----------------------------- |
  |
E-| -----------------------------------------------------------------
B-| -------------------------p-----------------------------------16'-
G-| 4'              (4)~~~~~4^2--------p-------------------------16'-
D-| ---------------------------4-2-2--4^2-------p--------------------
A-| ------------------------------5------4-2---2^0-p-h---------------
E-| ----------------------------------------5-2---2^0^2-(2)----2/----  


              |           |           |           |
E-|------------------------------------h--p---------
B-|(16)-16-14-----------------h------14^16^14-------
G-|(16)-------16--(16)------14^1614/16------16\14/16
D-|-------------------------------------------------
A-|-------------------------------------------------
E-|-------------------------------------------------
  |           |           |           |           |
E-| ------------------------------------------------
B-| ------------------------------------------------
G-|o-----------------------h----4----p-----p--------
D-|o-----------4---------4 ^5------5 ^2--4 ^2-----2-
A-| --h---------------------------------------5-----
E-| 0 ^2--------------------------------------------

                  |               |               |               |
E-|---------------------------------------------------------------- 
B-|---------------------141714--141417-14--1414171417-14-17-141717-  
G-|141614------141614-16------16'--------16'-----------------------  
D-|------161416----------------------------------------------------  
A-|----------------------------------------------------------------
E-|----------------------------------------------------------------
  |               |               |               |               |
E-|----------------------------------------------------------------
B-|----------------------------------------------------------------
G-|-------------------------------h-----4-----------7-------9------
D-|---------------4-------------4 ^ 5-------5-------7-------9------
A-|--h----------------------------------------------5-------7------ 
E-|0 ^ 2----------------------------- -----------------------------


                  |               |               |               |
E-|14-----14----14---14----14----14----14----14-14-14-14-14-14-17'- 
B-|---17'17--17'--17'---17'---17'---17'---17'----------------------
G-|----------------------------------------------------------------
D-|----------------------------------------------------------------
A-|----------------------------------------------------------------
E-|----------------------------------------------------------------
  |               |               |               |               |     
E-| ---------------------------------------------------------------
B-| ---------------------------------------------------------------
G-|o--------------------------h--------4-------p-----p-------------
D-|o--------------4----------4^5--------------5^2---4^2------2-----
A-| ----------------------------------------------5----------------
E-| 0 ^ 2----------------------------------------------------------


                  |               |               |               |
E-|(17)----17'(17)17'(17)16'------------(16)~~~~~~16'----(16)---16^ 
B-|----------------------------------------------------------------
G-|----------------------------------------------------------------
D-|----------------------------------------------------------------
A-|----------------------------------------------------------------
E-|----------------------------------------------------------------
  |               |               |               |               |
E-|----------------------------------------------------------------
B-|----------------------------------------------------------------
G-|-------------------------------h-----4-----------7-------9------
D-|---------------4-------------4 ^ 5-------5-------7-------9------
A-|--h----------------------------------------------5-------7------ 
E-|0 ^ 2-----------------------------------------------------------

All notes are in the teens, so don't try to play 1 then 7 then 1 then 6 however,
that sounds real neat too!
                      |                   |                   |                   |
E-|171614171416171614141714161711616141714161617161416141714161717161417141617171417
B-|---------------------------------------------------------------------------------
G-|---------------------------------------------------------------------------------
D-|---------------------------------------------------------------------------------
A-|---------------------------------------------------------------------------------
E-|---------------------------------------------------------------------------------
Same rhythm as displayed above.
                    |                     |                   |                   |
E-|14161617171617141714---------------------------17'(A.H.)------------------------
B-|---------------------17'--------(17)\sl.----------------------------------------
G-|--------------------------------------------------------------------------------
D-|--------------------------------------------------------------------------------
A-|--------------------------------------------------------------------------------
E-|--------------------------------------------------------------------------------              
  |                 |                     |                    |                  |
E-|--------------------------------------------------------------------------------
B-|--------------------------------------------------------------------------------
G-|----------------------------------------h--------4-----------4---------7--------
D-|-----------------4--------------------4 ^ 5------------5-----4---------7--------
A-|--h----------------------------------------------------------2---------5--------
E-|0 ^ 2---------------------------------------------------------------------------

                                   |
          |       |        |       |       |       |       |      |
E-|-----------------------------------------------------------------
B-|-----------------------------------------------------------------
G-|-----------------------------------------------------------------
D-|-----4^5^4-----------4^5^4-----------4^5^4----------4^5^4--------
A-|-2-2-------5-4-5-2-2-------5-4-5-0-0------5-4-5-0-0-------5-4-5--
E-|-----------------------------------------------------------------