Tabulature for "Mentally Yours" (Part 1)
Off the album "Gutter Ballet"
Written by Savatage

Transcribed by Patrick van der Horst boudie@xoommail.com

Mentally Yours...Part 2







Piano arranged for guitar
--7-------7-------7-------------7-------7-------7-------7------------7--------
----8---8---8---8-----7-------7---7---7---8---8---8---8-----8---8------8---8--
------7-------7-----------7-----7---7-------9---9---9---------9------9---9----
------------------------------------------------------------------------------
-10-----------10--9-----------------9---7-----------7-------------------------
--------------------------------------------------------10---------------10---
                 Timmy went out to play               with the friends he made                                           

-7----7----3----3----5----5---------5----------------7-------7-------7--------
-8----8----5----5----8----8---------7------------------8---8---8---8----7---7-
-9----9----5----5----7----7---------7--------------------7-------7--------7---
------------------------------------------------------------------------------
-----------3---------5---------5----------5----7----10-----------10--9--------
-8----------------------------------------------------------------------------
                Why did they send him away?                          Drove his                                    

--7-------7-------7-------7---------7--------7----7----3----3----5----5-------
----7---7---8---8---8---8-----8---8---8---8--8----8----5----5----8----8-------
------7-------9-------9---------9---7---9----9----9----5----5----7----7-------
------------------------------------------------------------------------------
------9---7-----------7--------------------------------3---------5--------5---
--------------------------10------------10---8--------------------------------
momy mad                  His dad-dy ran                  They didn't understand                                         

-5----5------7-------5-------3-------5-------7-------5-------3---3---5--------
-7----7--------8---8---7---7---5---5---7---7---8---8---7---7---5---5---7---7--
-7----7--8-------9-------7-------5-------7-------9-------7---5---5---7---7----
------------------------------------------------------------------------------
------5--6---7-------5-------3-------5-------7-------5-------3-------5--------
------------------------------------------------------------------------------
                      Now he gazes his cold nights through,reliving all of the                                                         

-7---7---5---5---3---3----5---5---7---7---5---5-----------------------5--5--5-
---8---8---7---7---5---5----7---7---8---8---7---7---7--8--8--8-7-5----8--8--7-
-9---9---7---7---5---5----7---7---9---9---7---7-----7--7--9--------7--7--7--7-
----------------------------------------------------7--7--10------------------
-7-------5-------3--------5-------7-------5---------------------------5-------
----------------------------------------------------8-----8-------------------
things he would do, if he only had another chance, if that was all he had                                                                              

Guitars
------------------------------------------------------------------------------
------------------------------------------------------------------------------
---------------------------5-------------------------------------5------------

---------------------------5-------------------------------------5------------
-4-------4-----3-2-0-------3-----------4-------4-----3-2-0-------3----/7-7-7--
-2---0---2-----------3-2-0-------------2---0---2-----------3-2-0--------------
                                                                              

------------------------------------------------------------------------------
------------------------------------------------------------------------------
---------------------------5----4----2---------------------------5------------
---------------------------5----4----2---------------------------5------------
-4-------4-----3-2-0-------3----2----0-4-------4-----3-2-0-------3----/7-7-7--
-2---0---2-----------3-2-0-------------2---0---2-----------3-2-0--------------
                                                                              

------------------------------------------------------------------------------
------------------------------------------------------------------------------
---------------------------5--4-4--------2--------------------------5---------
---------------------------5--4-4--4--5--2--------------------------5---------
-4-------4-----3-2-0-------3--2-2--2--3--0--4-------4---3-2-0-------3-/7-7-7--
-2---0---2-----------3-2-0------------------2---0---2---------3-2-0-----------
                                                                              
Rhy.fig 1
|-----------------------------------------------------------------------------
|-----------------------------------------------------------------------------
|------------5\4----------------------5\4-------------------------------------
|------------5\4----2h4---------------5\4-------------------------------------
|------------3\2----0-----4---2---4---3\2---0-3-2-0---------------------------
|2---0---2--------3-------2---0---2-----------------3-2---0---2---------------
|                                                                             
|
|-----------------------------------------------------------------------------
|--------------------------4b-p2-------2/-------------------------------------
|5\4-----------------------4b-p2-------2/-------------------------------------
|5\4----2h4------------------------4------------------------------------------
|3\2----0------4--------------------------------------------------------------
|-----3--------2---0---2------------------------------------------------------
                                                                              

 
Play fig 1 underneath these licks
------------------------------------------------------------------------------
--------------------------------------------------------------------16b-------
----------------------------16b18--16~~~~---------------------------16b18-14--
----------14-15-16-14-15-16-----------------------14-15-16-14-15-16-----------
-14-15-16--------------------------------14-15-16-----------------------------
------------------------------------------------------------------------------

------------------------------------------------------------------------------
--------------------------------------------------------------------16b-------
----------------------------16b18--16~~~~---------------------------16b18-14--
----------14-15-16-14-15-16-----------------------14-15-16-14-15-16-----------
-14-15-16--------------------------------14-15-16-----------------------------
------------------------------------------------------------------------------

------------------------------------------------------------------------------
--------------------------------------------------------------------16b-------
----------------------------16b18--16~~~~---------------------------16b18-14--
----------14-15-16-14-15-16-----------------------14-15-16-14-15-16-----------
-14-15-16--------------------------------14-15-16-----------------------------
------------------------------------------------------------------------------

------------------------------------------------------------------------------
------------------------------------------------------------------------------
----------------------------16b18--16~~~-------------------14h17p14-16b18-----
----------14-15-16-14-15-16-----------------------14-16p14--------------------
-14-15-16--------------------------------14-15-16-----------------------------
------------------------------------------------------------------------------
                                                                              

-------------14h17p14h17p14---------------------------------------------------
-14h17p14-17----------------17p14-17b19---------------------------------------
------------------------------------------------------------------------------
------------------------------------------------------------------------------
------------------------------------------------------------------------------
------------------------------------------------------------------------------
                                                                              

------------------------------------------------------------------------------
------------------------------------------------------------------------------
-----------------5--------4---------------------------5--------2--------------
-----------------5--------4---------------------------5--------2--------------
-4---------------3--------2----------4----------------3--------0--------------
-2---0---2-------------0-------------2---0---2--------------0-----------------
His    tension  life      he         beats  the    wife                         

------------------------------------------------------------------------------
------------------------------------------------------------------------------
-----------------5------------------------------------5--------2--------------
-----------------5------------------------------------5--------2--------------
-4---------------3--------2^---------4----------------3--------0--------------
-2---0---2-------------0-------------2---0---2--------------0-----------------
 Doused          the cat with gasoline                                                                   

------------------------------------------------------------------------------

------------------------------------------------------------------------------
-----------------5------------------------------------5--------4--------------
-----------------5------------------------------------5--------4--------------
-4---------------3--------2----------4----------------3--------2--------------
-2---0---2-------------0-------------2---0---2--------------0-----------------
 Got to try               the        other           side                                                                             

------------------------------
------------------------------
-----------------5--------4---
-----------------5--------4---
-4---------------3--------2---
-2---0--2--------------0------
     he just    has   to get away

------------------------------------------------------------------------------
------------------------------------------------------------------------------
-----------------5-------------------------9--/11------11----9---/11----11\---
-----------------5-------------------------9--/11------11----9---/11----11\---
-4---------------3-----0---3-2-0-----------7--/-9-------9----7---/-9-----9\---
-2---0---2-----------------------3---2---0------------------------------------
                                                                 That's when it
                                                                 all began

------------------------------------------------------------------------------
------------------------------------------------------------------------------
-4-------2------4---4-----------4-------4---p2-------4p2p0---------9--/11-----
-4-------2------4---4-----------4--------------4p2p0-------4p2p0-4------------
-2---2---0------2---2---2---2---2---2------------------------------7--/-9-----
------------------------------------------------------------------------------                                                                              
                            Timmy lost       his              mind

------------------------------------------------------------------------------
------------------------------------------------------------------------------
-11\----14\11------9----/11---11\---4-------2------4---4-----------4----------
-------------------9----/11---11\---4-------2------4---4-----------4----------
--7\----12\-9------7----/-9----9\---2---2---0------2---2---2---2---2---2------
------------------------------------------------------------------------------
Was just a matter of time                                        before he                                      

------------------------------------------------------------------------------
----------------------------3p2p0-3p2p0-3p2p0---------------------------------
-4---p2p0-------4p2p0-------------------------2p0-----------------------------
----------4p2p0-------4p2p0------------------------------------7--6^----------
-----------------------------------------------------4----/7----------7--7----
------------------------------------------------------------------------------
   went                     cra-         zy                                              

----------------------
----------------------
----------------------
-/9---7h9p7--6--------
-----------------7----
----------------------
                                                                              
|-----------------------------------------------------------------------------
|-----------------------------------------------------------------------------
|------------5\4----------------------5\4-------------------------------------
|------------5\4----2h4---------------5\4-------------------------------------
|------------3\2----0-----4---2---4---3\2---0-3-2-0---------------------------
|2---0---2--------3-------2---0---2-----------------3-2---0---2---------------
|      Mentally yours I'm mentally         yours                                                                        
|
|-----------------------------------------------------------------------------
|--------------------------4b-p2-------2/-------------------------------------
|5\4-----------------------4b-p2-------2/-------------------------------------
|5\4----2h4------------------------4------------------------------------------
|3\2----0------4--------------------------------------------------------------
|-----3--------2---0---2------------------------------------------------------
                                    
                                      Play fill 1    
|-----------------------------------------------------------------------------
|-----------------------------------------------------------------------------
|------------5\4----------------------5\4-------------------------------------
|------------5\4----2h4---------------5\4-------------------------------------
|------------3\2----0-----4---2---4---3\2---0-3-2-0---------------------------
|2---0---2--------3-------2---0---2-----------------3-2---0---2---------------
|      Mentally yours I'm mentally         yours 
|
|-----------------------------------------------------------------------------
|--------------------------4b-p2-------2/-------------------------------------
|5\4-----------------------4b-p2-------2/-------------------------------------
|5\4----2h4------------------------4------------------------------------------
|3\2----0------4--------------------------------------------------------------
|-----3--------2---0---2------------------------------------------------------
                                                                              
|-----------------------------------------------------------------------------
|-----------------------------------------------------------------------------
|------------5\4----------------------5\4-------------------------------------
|------------5\4----2h4---------------5\4-------------------------------------
|------------3\2----0-----4---2---4---3\2---0-3-2-0---------------------------
|2---0---2--------3-------2---0---2-----------------3-2---0---2---------------
|      Mentally yours I'm mentally         yours 
|
|-----------------------------------------------------------------------------
|--------------------------4b-p2-------2/-------------------------------------
|5\4-----------------------4b-p2-------2/-------------------------------------
|5\4----2h4------------------------4------------------------------------------
|3\2----0------4--------------------------------------------------------------
|-----3--------2---0---2------------------------------------------------------
         
            Paly fill 2
|-----------------------------------------------------------------------------
|-----------------------------------------------------------------------------
|------------5\4----------------------5\4-------------------------------------
|------------5\4----2h4---------------5\4-------------------------------------
|------------3\2----0-----4---2---4---3\2---0-3-2-0---------------------------
|2---0---2--------3-------2---0---2-----------------3-2---0---2---------------
|      Mentally yours I'm mentally         yours 
|
|-----------------------------------------------------------------------------
|--------------------------4b-p2-------2/-------------------------------------
|5\4-----------------------4b-p2-------2/-------------------------------------
|5\4----2h4------------------------4------------------------------------------
|3\2----0------4--------------------------------------------------------------
|-----3--------2---0---2------------------------------------------------------
                                                                              
Fill 1            Fill 2
-----------------|------------17b19-----r17----b-r17--------------------------
-4b-r4p2---------|------------------------------------------------------------
-4b6r4p2-------4^|-b4---/16---------------------------------------------------
-----------4-----|------------------------------------------------------------
-----------------|------------------------------------------------------------
-----------------|------------------------------------------------------------
                                                                              
------------------------------------------------------------------------------
------------------------------------------------------------------------------
-----------------5--------4---------------------------5--------2--------------
-----------------5--------4---------------------------5--------2--------------
-4---------------3--------2----------4----------------3--------0--------------
-2---0---2-------------0-------------2---0---2--------------0-----------------
 Run-   ning   wild       cause     that's   his      style

------------------------------------------------------------------------------
------------------------------------------------------------------------------
-----------------5------------------------------------5--------2--------------
-----------------5------------------------------------5--------2--------------
-4---------------3--------2^---------4----------------3--------0--------------
-2---0---2-------------0-------------2---0---2--------------0-----------------

 Can't           be held by any     cage

------------------------------------------------------------------------------
------------------------------------------------------------------------------
-----------------5------------------------------------5--------4--------------
-----------------5------------------------------------5--------4--------------
-4---------------3--------2----------4----------------3--------2--------------
-2---0---2-------------0-------------2---0---2--------------0-----------------
Crossed the      line                the final        time

------------------------------
------------------------------
-----------------5--------4---
-----------------5--------4---
-4---------------3--------2---
-2---0--2--------------0------
Tonight he           takes his


------------------------------------------------------------------------------
------------------------------------------------------------------------------

-----------------5-------------------------9--/11------11----9---/11----11\---
-----------------5-------------------------9--/11------11----9---/11----11\---
-4---------------3-----0---3-2-0-----------7--/-9-------9----7---/-9-----9\---
-2---0---2-----------------------3---2---0------------------------------------
 stage                                                           That's when it
                                                                 all began
------------------------------------------------------------------------------
------------------------------------------------------------------------------
-4-------2------4---4-----------4-------4---p2-------4p2p0---------9--/11-----
-4-------2------4---4-----------4--------------4p2p0-------4p2p0-4------------
-2---2---0------2---2---2---2---2---2------------------------------7--/-9-----
------------------------------------------------------------------------------                                                                              
                            Timmy lost       his              mind

------------------------------------------------------------------------------
------------------------------------------------------------------------------
-11\----14\11------9----/11---11\---4-------2------4---4-----------4----------
-------------------9----/11---11\---4-------2------4---4-----------4----------
--7\----12\-9------7----/-9----9\---2---2---0------2---2---2---2---2---2------
------------------------------------------------------------------------------
Was just a matter of time                                        before he                                      

------------------------------------------------------------------------------
----------------------------3p2p0-3p2p0-3p2p0---------------------------------
-4---p2p0-------4p2p0-------------------------2p0-----------------------------
----------4p2p0-------4p2p0------------------------------------7--6^----------
-----------------------------------------------------4----/7----------7--7----
------------------------------------------------------------------------------
   went                     cra-         zy                                              

----------------------
----------------------

----------------------
-/9---7h9p7--6--------
-----------------7----
----------------------
                                                                              
|-----------------------------------------------------------------------------
|-----------------------------------------------------------------------------
|------------5\4----------------------5\4-------------------------------------
|------------5\4----2h4---------------5\4-------------------------------------
|------------3\2----0-----4---2---4---3\2---0-3-2-0---------------------------
|2---0---2--------3-------2---0---2-----------------3-2---0---2---------------
|      Mentally yours I'm mentally         yours                                                                        
|
|-----------------------------------------------------------------------------
|--------------------------4b-p2-------2/-------------------------------------
|5\4-----------------------4b-p2-------2/-------------------------------------
|5\4----2h4------------------------4------------------------------------------
|3\2----0------4--------------------------------------------------------------
|-----3--------2---0---2------------------------------------------------------
                                    
                                      Play fill 1    
|-----------------------------------------------------------------------------
|-----------------------------------------------------------------------------
|------------5\4----------------------5\4-------------------------------------
|------------5\4----2h4---------------5\4-------------------------------------

|------------3\2----0-----4---2---4---3\2---0-3-2-0---------------------------
|2---0---2--------3-------2---0---2-----------------3-2---0---2---------------
|      Mentally yours I'm mentally         yours 
|
|-----------------------------------------------------------------------------
|--------------------------4b-p2-------2/-------------------------------------
|5\4-----------------------4b-p2-------2/-------------------------------------
|5\4----2h4------------------------4------------------------------------------
|3\2----0------4--------------------------------------------------------------
|-----3--------2---0---2------------------------------------------------------
                                                                              
|-----------------------------------------------------------------------------
|-----------------------------------------------------------------------------
|------------5\4----------------------5\4-------------------------------------
|------------5\4----2h4---------------5\4-------------------------------------
|------------3\2----0-----4---2---4---3\2---0-3-2-0---------------------------
|2---0---2--------3-------2---0---2-----------------3-2---0---2---------------
|      Mentally yours I'm mentally         yours 
|
|-----------------------------------------------------------------------------
|--------------------------4b-p2-------2/-------------------------------------
|5\4-----------------------4b-p2-------2/-------------------------------------
|5\4----2h4------------------------4------------------------------------------
|3\2----0------4--------------------------------------------------------------
|-----3--------2---0---2------------------------------------------------------
         
 
|-----------------------------------------------------------------------------
|-----------------------------------------------------------------------------
|------------5\4----------------------5\4-------------------------------------
|------------5\4----2h4---------------5\4-------------------------------------
|------------3\2----0-----4---2---4---3\2---0-3-2-0---------------------------
|2---0---2--------3-------2---0---2-----------------3-2---0---2---------------
|      Mentally yours I'm mentally         yours 
|
|-----------------------------------------------------------------------------
|--------------------------4b-p2-------2/-------------------------------------
|5\4-----------------------4b-p2-------2/-------------------------------------
|5\4----2h4------------------------4------------------------------------------
|3\2----0------4--------------------------------------------------------------
|-----3--------2---0---2------------------------------------------------------

Rhythm part for solo 1
|--------------------------------------------
|--------------------------------------------
|---------9--/11------11----9---/11----11\---
|---------9--/11------11----9---/11----11\---
|---------7--/-9-------9----7---/-9-----9\---
|---2---0------------------------------------
|
|-----------------------------------------------------------------------------
|-----------------------------------------------------------------------------
|4-------2------4---4-----------4-------4---p2-------4p2p0---------9--/11-----
|4-------2------4---4-----------4--------------4p2p0-------4p2p0-4------------
|2---2---0------2---2---2---2---2---2------------------------------7--/-9-----
|-----------------------------------------------------------------------------                                                                              
|
|-----------------------------------------------------------------------------
|-----------------------------------------------------------------------------
|11\----14\11------9----/11---11\---4-------2------4---4-----------4----------
|------------------9----/11---11\---4-------2------4---4-----------4----------
|-7\----12\-9------7----/-9----9\---2---2---0------2---2---2---2---2---2------
|-----------------------------------------------------------------------------
|
|---------------------------
|---------------------------
|4---p2p0-------4p2p0-------
|---------4p2p0-------4p2p0-
|---------------------------
|---------------------------
|
|-----------------------------------------------------------------------------
|-----------------------------------------------------------------------------
|-----4-------4--p2-------4p2p0------------9---/11---11----9--/11----11-------
|-----4-------------4p2p0-------4p2p0--4-------------------9--/11----11-------
|-2---2---2--------------------------------7---/-9----9----7--/-9-----9-------
|-----------------------------------------------------------------------------
|
|-----------------------------------------------------------------------------
|-----------------------------------------------------------------------------
|-4-------2------4---4-----------4-------4---p2-------4p2p0---------9--/11----
|-4-------2------4---4-----------4--------------4p2p0-------4p2p0-4-----------
|-2---2---0------2---2---2---2---2---2------------------------------7--/-9----
|-----------------------------------------------------------------------------                                                                              
|
|-----------------------------------------------------------------------------
|-----------------------------------------------------------------------------
|11\----14\11------9----/11---11\---4-------2------4---4-----------4----------
|------------------9----/11---11\---4-------2------4---4-----------4----------
|-7\----12\-9------7----/-9----9\---2---2---0------2---2---2---2---2---2------
|-----------------------------------------------------------------------------
|
|-----------------------------------------------------------------------------
|---------------------------3p2p0-3p2p0-3p2p0---------------------------------
|4---p2p0-------4p2p0-------------------------2p0-----------------------------
|---------4p2p0-------4p2p0------------------------------------7--6^----------
|----------------------------------------------------4----/7----------7--7----
|-----------------------------------------------------------------------------
|
|---------------------
|---------------------
|---------------------
|/9---7h9p7--6--------
|----------------7----
|---------------------