Tabulature for "Mentally Yours" (Part 2)
Off the album "Gutter Ballet"
Written by Savatage

Transcribed by Patrick van der Horst boudie@xoommail.com


Solo 1
|-----------------------------------------------------------------------------
|---------------------16-17---15-14-15-17p15-14h15p14-------------------------
|------------------14----------------------------------16-14-16-16b18r16p14---
|16b18---r16----16------------------------------------------------------------
|-----------------------------------------------------------------------------
|-----------------------------------------------------------------------------
|                                                                             
|
|-----17b19---17b19---17b19r17---17-16--16h17-16--17p16p14-16p14-14-----------
|--------------------------------------------------------------------17b19----
|16---------------------------------------------------------------------------
|-----------------------------------------------------------------------------
|-----------------------------------------------------------------------------
|-----------------------------------------------------------------------------
|                                                                             
|

|-----------------------------------------------------------------------------
|r17-17p14p17---14------------------------------------------------------------
|------------16----16b18r16p14----14-------14h16p14-------14h15-16-14---------
|------------------------------16----14/16----------14/16-------------16------
|-----------------------------------------------------------------------------
|-----------------------------------------------------------------------------
|                                                                             
|
|-------------------------------14-16h17p16p14h16p14----14--------------------
|------------------14--14-16-17----------------------17----17*-b19--17b19-----
|------14-17p14-16------------------------------------------------------------
|14/16------------------------------------------------------------------------
|-----------------------------------------------------------------------------
|-----------------------------------------------------------------------------
|                                                      *Switch pick-up selector                       
|                                                       from neck to bridge
|-----------------------------------------------------------------------------
|17b19--17--17b19--14----14------------------------14-------------------------
|---------------------16----16b----16----16b18--14----16----------------------
|-----------------------------------------------------------------------------
|-----------------------------------------------------------------------------
|-----------------------------------------------------------------------------
|                                                                             
|
|--------19---17-16-17-17---16-17-16-14--16b----16b----17---16----------------
|-----------------------------------------------------------------------------
|16b18------------------------------------------------------------------------
|-----------------------------------------------------------------------------
|-----------------------------------------------------------------------------
|-----------------------------------------------------------------------------
|                                                                             
|
|16h17p16p14h16p14----14-------14---------------------------------------------

|------------------17----17b19----17b19r17p14h17----14------------------------
|------------------------------------------------16----16b18r16--14-16p14\13--
|-----------------------------------------------------------------------------
|-----------------------------------------------------------------------------
|-----------------------------------------------------------------------------
|                                                                             
|
|-----------------------------------------------------------------------------
|---------------------------------17b19--r17p14h17p14----14-------------------
|14---14p13--14--16---16b18---r16---------------------16----16b18r16p14--16---
|-----------------------------------------------------------------------------
|-----------------------------------------------------------------------------
|-----------------------------------------------------------------------------
|                                                                             
|
|17--17-16------19---17----19b21------19----17-19-16-16-17-16--17p16\14-14----
|-----------------------------------------------------------------------------
|-----------------------------------------------------------------------------
|-----------------------------------------------------------------------------
|-----------------------------------------------------------------------------
|-----------------------------------------------------------------------------
|                                                                             
|
|16p14\12-14-12-14p12\10---12-10---12p10\9--10-12-10-9-12-9-------------------
|-----------------------------------------------------------10b12--r10\-------
|-----------------------------------------------------------------------------
|-----------------------------------------------------------------------------
|-----------------------------------------------------------------------------
|-----------------------------------------------------------------------------
|
|                                                                            
|----------------------------------------0------------------------------------
|----------------------------------------0------------------------------------
|--------------------------5--------------------------------------------------
|--------------------------5-------3-----2------------------------------------
|------------3-2-0---------3-------3-----2------------------------------------
|2---0---2---------3-2-0-----------1-----0---------/22\-----------------------
                                                                              

------------------------------------------------------------------------------
------------------------------------------------------------------------------
-9---9---------------9---9---------------9---9--------------------------------
-9---9---------------9---9---------------9---9--------------------------------
-7---7---------------7---7---------------7---7---------------8p7h8--10p8p7----
---------0---0---0-----------0---0---0-----------0---0---0--------------------
                                                                              

------------------------------------------------------------------------------
------------------------------------------------------------------------------
-9---9---------------9---9---------------9---9--------------------------------
-9---9---------------9---9---------------9---9--------------------------------
-7---7---------------7---7---------------7---7---------------8p7h8--10p8p7----
---------0---0---0-----------0---0---0-----------0---0---0--------------------
                                                                              

------------------------------------------------------------------------------
------------------------------------------------------------------------------
-9---9---------------9---9---------------9---9--------------------------------
-9---9---------------9---9---------------9---9--------------------------------
-7---7---------------7---7---------------7---7---------------8p7h8--10p8p7----
---------0---0---0-----------0---0---0-----------0---0---0--------------------
                      
Rhythm part for solo 2
|-----------------------------------------------------------------------------
|-----------------------------------------------------------------------------
|9---9---------------9---9---------------9---9--------------------------------
|9---9---------------9---9---------------9---9--------------------------------
|7---7---------------7---7---------------7---7---------------8p7h8--10p8p7----
|--------0---0---0-----------0---0---0-----------0---0---0--------------------
|                                                                             
|
|-----------------------------------------------------------------------------
|-----------------------------------------------------------------------------
|7---7---------------7---7---------------7---7--------------------------------
|7---7---------------7---7---------------7---7--------------------------------
|5---5---5---5---5---5---5---5---5---5---5---5---5---5/7-----8p7h8--10p8p7----
|-----------------------------------------------------------------------------
|
|
|-----------------------------------------------------------------------------
|-----------------------------------------------------------------------------
|9---9---------------9---9---------------9---9--------------------------------
|9---9---------------9---9---------------9---9--------------------------------
|7---7---------------7---7---------------7---7---------------8p7h8--10p8p7----
|--------0---0---0-----------0---0---0-----------0---0---0--------------------
|                                                                           

|
|-----------------------------------------------------------------------------
|-----------------------------------------------------------------------------
|9---9---------------9---9---------------9---9--------------------------------
|9---9---------------9---9---------------9---9--------------------------------
|7---7---------------7---7---------------7---7---------------8p7h8--10p8p7----
|--------0---0---0-----------0---0---0-----------0---0---0--------------------
|                                                                             
|
|-----------------------------------------------------------------------------
|-----------------------------------------------------------------------------
|9---9---------------9---9---------------9---9--------------------------------
|9---9---------------9---9---------------9---9--------------------------------
|7---7---------------7---7---------------7---7---------------8p7h8--10p8p7----
|--------0---0---0-----------0---0---0-----------0---0---0--------------------
|                                                                             
|
|-----------------------------------------------------------------------------
|-----------------------------------------------------------------------------
|7---7---------------7---7---------------7---7--------------------------------
|7---7---------------7---7---------------7---7--------------------------------
|5---5---5---5---5---5---5---5---5---5---5---5---5---5/7-----8p7h8--10p8p7----
|-----------------------------------------------------------------------------
|
|
|-----------------------------------------------------------------------------
|-----------------------------------------------------------------------------
|9---9---------------9---9---------------9---9--------------------------------
|9---9---------------9---9---------------9---9--------------------------------
|7---7---------------7---7---------------7---7---------------8p7h8--10p8p7----
|--------0---0---0-----------0---0---0-----------0---0---0--------------------
                                                                             
 Solo 2
|-------------------------------------------------------------------12-15-12--
|-----------------------------------------------------------------------------
|4/12-----11--------11--h12--p11h12----11h12h14---p12h14b16-------------------
|-----------------------------------------------------------------------------
|-----------------------------------------------------------------------------
|-----------------------------------------------------------------------------
|                                                                             
|
|14-15-14-12-15-12-14-15-15-14-12-15-12-14-15-14-12-15-12-14/17-17-15-15-17---
|-----------------------------------------------------------------------------
|-----------------------------------------------------------------------------
|-----------------------------------------------------------------------------
|-----------------------------------------------------------------------------
|-----------------------------------------------------------------------------
|                                                                             
|
|14-14-15-17-17-15-15-17-15-14-15-17-15-14-15-17-15-14-15-17-15-14-15-17-15---
|-----------------------------------------------------------------------------
|-----------------------------------------------------------------------------
|-----------------------------------------------------------------------------
|-----------------------------------------------------------------------------
|-----------------------------------------------------------------------------
|                                                                             
|
|15-17-18-18--19--------/22-----21b-------21b--------21b---------r------21----
|-----------------------------------------------------------------------------
|-----------------------------------------------------------------------------
|-----------------------------------------------------------------------------
|-----------------------------------------------------------------------------
|-----------------------------------------------------------------------------
|                                                                             
|
|19-21-19-17-19-17-16-17-15-14-15-14------------------------------------------
|-------------------------------------17--14--17\15p14p12--12--12--15p12--12--
|-----------------------------------------------------------------------------
|-----------------------------------------------------------------------------
|-----------------------------------------------------------------------------
|-----------------------------------------------------------------------------
|                                                                             
|
|-----------------------------------------------------------------------------
|12---------------------------------------------------------------------------
|---14b16r14p12h14p12\11h12p11\9h11p9\7---------------------------------------

|-----------------------------------------------------------------------------
|-----------------------------------------------------------------------------
|-----------------------------------------------------------------------------
                                                                             

------------------------------------------------------------------------------
------------------------------------------------------------------------------
-9---9------9---9------9---9------9---9-----9------7--------------------------
-9---9------9---9------9---9------9---9-----9------7--------------------------
-7---7------7---7------7---7------9---7-----7------5--------------------------
------------------------------------------------------------------------------
                                                                              
Ending solo, mess again with the timing
|-----------------------------------------------------------------------------
|4b---r4b---------------------16b------r16------------------------------------
|4b---r4b-------0--------------------------------17b-r17b-r17----\------16b-p-
|-----------------------------------------------------------------------------

|-----------------------------------------------------------------------------
|-----------------------------------------------------------------------------
|                                                                             
|
|------------------------16b-----r16----\------16b18-----r16------------------
|--------14---16ph--14-----------------------------------------x\-/16---------
|14--16--16---------16-----------------------------------------x\-------------
|-----------------------------------------------------------------------------
|-----------------------------------------------------------------------------
|-----------------------------------------------------------------------------
|                                                                             
|
|14----14-----14-----14-14-14-14-14-----------14-14-----14-14-----14-14-------
|---17----17b----17b----------------17p14-17b-------17b-------b17-------17b---
|-----------------------------------------------------------------------------
|-----------------------------------------------------------------------------
|-----------------------------------------------------------------------------
|-----------------------------------------------------------------------------
|                                                                             
|
|14-14------------------------------------------------------------------------
|------17b----------x---------------------------------------------------------
|----------------------------4b6---4b6----4------4b--------4b8--r4------------
|-----------------------------------------------------------------------------
|-----------------------------------------------------------------------------
|-----------------------------------------------------------------------------
|                                                                             
|
|-----------------------------------------------------------------------------
|----------------4\/\/\/\/\/--------------------------------------17----------
|4\/\/\/\--------------------------4b6-----r4\/\/\/\--------------16b--16b18--
|------------------------------------------------------4/\/\/\/---------------
|-----------------------------------------------------------------------------
|-----------------------------------------------------------------------------
  \/\/=use trem. bar.