Tabulature for "Silk And Steel"
Off the album "Gutter Ballet"
Written by Savatage

Transcribed by Patrick van der Horst boudie@xoommail.com

------------------------------------------------------------------------



-------9---------9p7-----7---------9p7-----7---------9p7-----7----------------

-----7-------7-------7-------7---------7-------7---------7-------7------------
---9-------9---9-------9---------9-------9---------9-------9---------9--------
---------7-----------------7---7-------------7---7-------------7---7----------
-7---------------7-----------------7-----------------7------------------------
------------------------------------------------------------------------------
                                                                              

-------9--------10p7----7--------10p7-----7-------7---------10p7-----7--------
-----7-------7------8-------8---------8-------8-------8----------8------8-----
---9-------9---9------9---------9-------9-------9---------9--------9--------9-
---------7----------------7---7-------------7-------7---7-------------7---7---
-7---------------7----------------7--------------------------7----------------
------------------------------------------------------------------------------
                                                                              

-10p7-----7--------|-------5---------5p3-----3---------5p3-----3--------------
------8-------8vv\-|-----3-------3-------3-------3---------3-------3----------
--------9----------|---5-------5---5-------5---------5-------5---------5------
------------7---7\-|---------3-----------------3---3-------------3---3--------
--7----------------|-3---------------3-----------------3----------------------
-------------------|----------------------------------------------------------
                                                                              

-5p3-----3---------------5---------6p3-----3---------6p3-----3---------6p3----
-----3-------3---------3-------3-------4-------4---------4-------4---------4--
-------5---------5---5-------5---5-------5---------5-------5---------5--------
-----------3---3-----------3-----------------3---3-------------3---3----------
-3-----------------3---------------3-----------------3-----------------3------
------------------------------------------------------------------------------
                                                                              

---3---------6p3-----3---6---5--|-------2-------------------------------------
-------4---------4--------------|-----3-------3---3p2----2---------3p2----2---
-5---------5-------5------------|---2-------2---2----2-------2---2----2-------
-----3---3----------------------|-0-------0------------0---0---0--------0-----
-------------3---------3---0----|-----------------0----------------0----------
--------------------------------|---------------------------------------------
                                                                              

--------------------------------0---------2h5p2---0----------2h5p2---0--------
---------3p2----2---3---------3-------3---------3-----3------------3-----3----
---2---2----2-----------4---4-------4---4-----------------4-------------------

-0---0--------0-----------0-------0-------0---------0---0----0---------0---0--
---------0--------0---0-------------------------------------------------------
------------------------------------------------------------------------------
                                                                              

---2h5p2---0------------------------------------------------------------------
---------3-----3---------3-------3---3p2----2---------3p2----2---------3p2----
-4-----------------4---2---2---2---2----2-------2---2----2-------2---2----2---
---0---------0---0-----------0------------0---0---0--------0---0---0----------
---------------------0---------------0----------------0----------------0------
------------------------------------------------------------------------------
                                                                              

-------------------5---------------------8----------------8---7-------5-------
---2---3---------5-------5---5h7p5---5---------5h7p5--5-------------5-----5---
-----------2/5-5-------5---5-------7---------7------7-------------7-----------
-0---0---0-----------0-----------------0---0------------0---0-----------5-----
-------------0---------------0-----------------0----------------5-------------
------------------------------------------------------------------------------
                                                                              

-----7-----5---------7-----5--------7-----7---9--10--------8-----------10-----
-------5-------5-------5-------5------5------------------8--------8-------8---
---7-----7---------7-----7---------7----7-------------10-------10---10--------
-5-----------5---5-----------5---5---------------------------8----------------
-----5---------------5--------------5-------0---0---8-------------------8-----
------------------------------------------------------------------------------
                                                                                                      
Play this whole part three times,but
               __________________________
              [Play first two times.
----8----------10------8----------10------8-----------------------------------
--------8---------8--------8---------8--------8-------------------------------
-10---------10------10---------10------10---------10\8------------------------
------8---8--------------8---8--------------8---8-----------------------------
----------------8------------------8------------------------------------------
------------------------------------------------------------------------------
                                                                              
________________________________________________                            
[Third time play this section.
-10------8----------10------8----------10------8----------10------8-----------
----8--------8---------8--------8---------8--------8---------8--------8-------
------10---------10------10---------10------10---------10------10---------10--
-----------8---8--------------8---8--------------8---8--------------8---8-----
--8------------------8------------------8------------------8------------------
------------------------------------------------------------------------------

-10------8----------10------8--------------------9----------------------------
----8--------8---------8--------8----------------7----------------------------
------10---------10------10---------10-----------9----------------------------
-----------8---8--------------8---8-------------------------------------------
--8------------------8---------------------------7----------------------------
------------------------------------------------------------------------------


Solo part, mees with the timing again!                 /All these trem. Pick.
-------12~~~~------12~~~~---12--10--9-------------12~~~10---9---7---5--3------
-10~~~~------10~~~~------10-----------12----10~~~~----------------------------
------------------------------------------------------------------------------

------------------------------------------------------------------------------
------------------------------------------------------------------------------
------------------------------------------------------------------------------
                                                                              

-2--2-3p2p0~~~~~~-------6p5-------------------------------------11---10---8---
----------------------------6-5---------------------------3/8------8----8-----
--------------------------------7---5-7---------------------------------------
----------------------------------8-----5-7---5-7-----------------------------
--------------------------------------------8-----8---------------------------
------------------------------------------------------------------------------
                                                                              

-6--5----\2-------------------------------------------------------------------
-8--7----\3---------3p2-------------------------------------------------------
------------------------4-2h4p2---2-------------------------------------------
--------------------------------5---5-4-2-4-5---------------------------------
--------------------------------------------------------------------2--5-4----
------------------------------------------------3---3-------3-2-3-5-----------
                                                                              

------------------------------------------------------------------------------
---------------------------10-12-14-----------12h13p12-10-12-13-12-10-12------
-------------------9-11-12-----------------------------------------------12---
----------10-12-14------------------------------------------------------------
-10-12-14---------------------------------------------------------------------
------------------------------------------------------------------------------
                                                                              

----------------10-------------10-------8-------10-------8-------10-------8---
-10-12-13-12-13----13-12-10/12----12\10---10/12----12\10---10/12----12\10-----
------------------------------------------------------------------------------
------------------------------------------------------------------------------
------------------------------------------------------------------------------
------------------------------------------------------------------------------
                                                                              
                                     /Trem.pick.
-------10---------------12---13------13-----13---------12~~----12~~---12-10-9-
-10/12---12-------------14---15--------------------10~~----10~~---10----------
-------------12---------------------------------------------------------------
------------------12----------------------------------------------------------
------------------------------------------------------------------------------
------------------------------------------------------------------------------
                                                                              
                 /All trem.pick.
-------------12--14--12--10-9--7--5--3-------------------------10-8---\3--5---
-12-------10----------------------------------------------8-12----------------
--------------------------------------------------------9---------------------
-----------------------------------------------------10-----------------------
------------------------------------------------7-10--------------------------
----------------------------------------------8-------------------------------
                                                                              

---3----5---3---5---3---5---3---5---------5-6---6--8----6--5---\2-------------
-6--------6-------6-------6-------6-----6---------------8--7---\3-------------
------------------------------------------------------------------------------
------------------------------------------------------------------------------
------------------------------------------------------------------------------
------------------------------------------------------------------------------
                                                                              

------------------------------------------------------------------------------
-------------5----------------------5-----------------------------------------
---------6-7---7--6h7p6p4-----4-6-7---7-6-4-6--4------------------------------
---4-5-7------------------------------------------7---------------------------
-5--------------------------------------------------5-------------------------
------------------------------------------------------------------------------
                                                                              

----------------------------------------------------10-12h13p12p10------------
-------------------------------10-10-12h13-10-12h13----------------13-12-10~~-
------------------------7-9/12------------------------------------------------
-----------------7-9-10-------------------------------------------------------
----------7-9-10--------------------------------------------------------------
-5h7h8/10---------------------------------------------------------------------
                                                                              

----------10-12h13p12p10----------10-13p12p10-------------10------------------
-10h12h13----------------13-10h12-------------13-12----13---------------------
--------------------------------------------------------------12~~~~~~~~~-----
------------------------------------------------------------------------------
------------------------------------------------------------------------------
------------------------------------------------------------------------------

                                                                              
                                                            
-------------------10-13--------13------13------13------13------13------13----
----------------11----------11------11------11------11------11------11--------
-------------10---------------------------------------------------------------
--------8-12------------------------------------------------------------------
------8-----------------------------------------------------------------------
-6-10-------------------------------------------------------------------------