Tabulature for "Thorazine Shuffle"
Off the album "Gutter Ballet"
Written by Savatage

Transcribed by Patrick van der Horst boudie@xoommail.com

* measn trill (ie very fast hammer-ons and pull-offs)


Play this riff four times
------------------------------------------------------0-----------------------
-------1--0-----------0h1p0---0---------1--0----------0-----------------------
------------0---------------0---0------------0--------2-----------------------
-----2-------------2------------------2---------------2-----------------------
---2--------------------------------2-----------------------------------------
-0------------0-------------------0------------3------------------------------
                                                                              
Play these along with the intro
------------------------------------------------------------------------------
------------------------------------------------------------------------------
------------------------------------------------------------------------------
-2-2------4------0-2-0-----------2-2------4------0-2-0------------------------
-----------------------2-------------------------------2----------------------
-------------------------0-------------------------------0-------17\----------
                                                                              

------------------------------------------------------------------------------
------------------------------------------------------------------------------
-10-----------9---------------10-----------9/10-9/10-13\10--------------------
-10-----------9---------------10----------------------------------------------
--8-----------7----------------8-----------7/8--7/8--11\8---------------------
------0---0-------0---0---0--------0---0--------------------------------------
                                                                              

------------------------------------------------------------------------------
-----------------------------------------------------------10-----7*8---------
-10-----------9---------------10-----------------------7----------------------
-10-----------9---------------10-------------------7--------------------------
--8-----------7----------------8-----------5---8------------------------------
------0---0-------0---0---0--------0---0--------------------------------------
 
                                                                             
------------------------------------------------------------------------------
------------------------------------------------------------------------------
-10-----------9---------------10-----------9/10-9/10-13\10--------------------
-10-----------9---------------10----------------------------------------------
--8-----------7----------------8-----------7/8--7/8--11\8---------------------

------0---0-------0---0---0--------0---0--------------------------------------


-------------------------------------------5----------------------------------
-----------------------------------------------6------------------------------
-10-----------9---------------10-------------------7--------------------------

-10-----------9---------------10-------------------------------7*8------------
--8-----------7----------------8-----------------------5---8------------------
------0---0-------0---0---0--------0---0--------------------------------------

                                                                              
------------------------------------------------------------------------------
------------------------------------------------------------------------------
-10-----------9---------------10-----------9/10-9/10-13\10--------------------
-10-----------9---------------10----------------------------------------------
--8-----------7----------------8-----------7/8--7/8--11\8---------------------
------0---0-------0---0---0--------0---0--------------------------------------

                                        Play fill 1 here
------------------------------------------------------------------------------
---------------------------------------------------------------6---6*9--------
-------------------------------------------------------5---7------------9/10--
---------------------------------------------------7--------------------------
--8-----------7----------------8-----------5---8------------------------------
------0---0-------0---0---0--------0---0--------------------------------------
                                                                              
Fill 1
-------------------
-15b17--------r15--
-------------------
-------------------
-------------------
-------------------


------------------------------------------------------------------------------
------------------------------------------------------------------------------
------------------------------------------------10----10---\7-----------------
------------------------------------------------10----10---\7-----------------
------------------7*8----10----------------------8-----8---\5-----------------
-0----0----0----0-------------0----0----0----0--------------------------------
                                                                              

------------------------------------------------------------------------------
------------------------------------------------------------------------------
-------------------------------------------------5-----5---/7-----------------
-------------------------------------------------5-----5---/7-----------------
------------------7*8----10----------------------3-----3---/5-----------------
-0----0----0----0-------------0----0----0----0--------------------------------
                                                                              

------------------------------------------------------------------------------
------------------------------------------------------------------------------
------------------------------------------------10----10---\7-----------------
------------------------------------------------10----10---\7-----------------
------------------7*8----10----------------------8-----8---\5-----------------
-0----0----0----0-------------0----0----0----0--------------------------------
 Thinking about yesterday                                                                            

------------------------------------------------------------------------------
------------------------------------------------------------------------------
-------------------------------------------------5-----5---/7-----------------
-------------------------------------------------5-----5---/7-----------------
------------------7*8----10----------------------3-----3---/5-----------------
-0----0----0----0-------------0----0----0----0--------------------------------
 How my life used to be                                                                             

------------------------------------------------------------------------------
------------------------------------------------------------------------------
------------------------------------------------10----10---\7-----------------
------------------------------------------------10----10---\7-----------------
------------------7*8----10----------------------8-----8---\5-----------------
-0----0----0----0-------------0----0----0----0--------------------------------
 Now I'm locked inside this place                                                                             

------------------------------------------------------------------------------
------------------------------------------------------------------------------
-------------------------------------------------5-----5---/7-----------------
-------------------------------------------------5-----5---/7-----------------
------------------7*8----10----------------------3-----3---/5-----------------
-0----0----0----0-------------0----0----0----0--------------------------------
  I'm a schizophrenic case                                                                             

------------------------------------------------------------------------------
------------------------------------------------------------------------------
------------------------------------------------10----10---\7-----------------
------------------------------------------------10----10---\7-----------------
------------------7*8----10----------------------8-----8---\5-----------------
-0----0----0----0-------------0----0----0----0--------------------------------
 All the faces I now see                                                                             

------------------------------------------------------------------------------
------------------------------------------------------------------------------
-------------------------------------------------5-----5---/7-----------------
-------------------------------------------------5-----5---/7-----------------
------------------7*8----10----------------------3-----3---/5-----------------
-0----0----0----0-------------0----0----0----0--------------------------------
 Never show a sign of glee                                                                              

------------------------------------------------------------------------------
------------------------------------------------------------------------------
------------------------------------------------10----10---\7-----------------
------------------------------------------------10----10---\7-----------------
------------------7*8----10----------------------8-----8---\5-----------------
-0----0----0----0-------------0----0----0----0--------------------------------
 Every night we start to bustle It's time to do                                                                              

------------------------------------------------------------------------------
------------------------------------------------------------------------------
-------------------------------------------------5-----5---/7-----------------
-------------------------------------------------5-----5---/7-----------------
------------------7*8----10----------------------3-----3---/5-----------------
-0----0----0----0-------------0----0----0----0--------------------------------
           The        Thorazine                  Shuffle                                                                             
 

------------------------------------------------------------------------------
------------------------------------------------------------------------------
-10-----------9---------------10-----------9/10-9/10-13\10--------------------
-10-----------9---------------10----------------------------------------------
--8-----------7----------------8-----------7/8--7/8--11\8---------------------
------0---0-------0---0---0--------0---0--------------------------------------
                                                                              

------------------------------------------------------------------------------
-----------------------------------------------------------10-----7*8---------
-10-----------9---------------10-----------------------7----------------------
-10-----------9---------------10-------------------7--------------------------
--8-----------7----------------8-----------5---8------------------------------
------0---0-------0---0---0--------0---0--------------------------------------

                                                   The Thor - a -  zine
                                                                             
------------------------------------------------------------------------------
------------------------------------------------------------------------------
-10-----------9---------------10-----------9/10-9/10-13\10--------------------
-10-----------9---------------10----------------------------------------------
--8-----------7----------------8-----------7/8--7/8--11\8---------------------
------0---0-------0---0---0--------0---0--------------------------------------
 shuffle

-------------------------------------------5----------------------------------
-----------------------------------------------6------------------------------
-10-----------9---------------10-------------------7--------------------------
-10-----------9---------------10-------------------------------7*8------------
--8-----------7----------------8-----------------------5---8------------------
------0---0-------0---0---0--------0---0--------------------------------------

                                                                              
------------------------------------------------------------------------------
------------------------------------------------------------------------------
-10-----------9---------------10-----------9/10-9/10-13\10--------------------
-10-----------9---------------10----------------------------------------------
--8-----------7----------------8-----------7/8--7/8--11\8---------------------
------0---0-------0---0---0--------0---0--------------------------------------
                                             The Thor-a-zine
                                       Play fill 1 here
------------------------------------------------------------------------------
---------------------------------------------------------------6---6*9--------
-------------------------------------------------------5---7------------9/10--
---------------------------------------------------7--------------------------
--8-----------7----------------8-----------5---8------------------------------
------0---0-------0---0---0--------0---0--------------------------------------
 Shuffle                                                                             
Fill 1
-------------------
-15b17--------r15--
-------------------
-------------------
-------------------
-------------------

------------------------------------------------------------------------------
------------------------------------------------------------------------------
------------------------------------------------10----10---\7-----------------
------------------------------------------------10----10---\7-----------------
------------------7*8----10----------------------8-----8---\5-----------------
-0----0----0----0-------------0----0----0----0--------------------------------
                                                                              

------------------------------------------------------------------------------
------------------------------------------------------------------------------
-------------------------------------------------5-----5---/7-----------------
-------------------------------------------------5-----5---/7-----------------
------------------7*8----10----------------------3-----3---/5-----------------
-0----0----0----0-------------0----0----0----0--------------------------------
                                                                              

------------------------------------------------------------------------------
------------------------------------------------------------------------------
------------------------------------------------10----10---\7-----------------
------------------------------------------------10----10---\7-----------------
------------------7*8----10----------------------8-----8---\5-----------------
-0----0----0----0-------------0----0----0----0--------------------------------
 Every day half past four

------------------------------------------------------------------------------
------------------------------------------------------------------------------
-------------------------------------------------5-----5---/7-----------------
-------------------------------------------------5-----5---/7-----------------
------------------7*8----10----------------------3-----3---/5-----------------
-0----0----0----0-------------0----0----0----0--------------------------------
 They pushed my food through the door                                                                           

------------------------------------------------------------------------------
------------------------------------------------------------------------------
------------------------------------------------10----10---\7-----------------
------------------------------------------------10----10---\7-----------------
------------------7*8----10----------------------8-----8---\5-----------------
-0----0----0----0-------------0----0----0----0--------------------------------
 Every night right at eight   



------------------------------------------------------------------------------
------------------------------------------------------------------------------
-------------------------------------------------5-----5---/7-----------------
-------------------------------------------------5-----5---/7-----------------
------------------7*8----10----------------------3-----3---/5-----------------

-0----0----0----0-------------0----0----0----0--------------------------------
 They put me back into my straight                                                                             

------------------------------------------------------------------------------
------------------------------------------------------------------------------
------------------------------------------------10----10---\7-----------------
------------------------------------------------10----10---\7-----------------
------------------7*8----10----------------------8-----8---\5-----------------
-0----0----0----0-------------0----0----0----0--------------------------------
 All the paintings I have made

------------------------------------------------------------------------------
------------------------------------------------------------------------------
-------------------------------------------------5-----5---/7-----------------
-------------------------------------------------5-----5---/7-----------------
------------------7*8----10----------------------3-----3---/5-----------------
-0----0----0----0-------------0----0----0----0--------------------------------
 They look kind of strange

------------------------------------------------------------------------------
------------------------------------------------------------------------------
------------------------------------------------10----10---\7-----------------
------------------------------------------------10----10---\7-----------------
------------------7*8----10----------------------8-----8---\5-----------------
-0----0----0----0-------------0----0----0----0--------------------------------
 Every night we start to hustle It's time to do                                                                              

------------------------------------------------------------------------------
------------------------------------------------------------------------------
-------------------------------------------------5-----5---/7-----------------
-------------------------------------------------5-----5---/7-----------------
------------------7*8----10----------------------3-----3---/5-----------------
-0----0----0----0-------------0----0----0----0--------------------------------
           The        Thorazine                  Shuffle                                                                             
 

------------------------------------------------------------------------------
------------------------------------------------------------------------------
-10-----------9---------------10-----------9/10-9/10-13\10--------------------
-10-----------9---------------10----------------------------------------------
--8-----------7----------------8-----------7/8--7/8--11\8---------------------
------0---0-------0---0---0--------0---0--------------------------------------
                                                                              

------------------------------------------------------------------------------
-----------------------------------------------------------10-----7*8---------
-10-----------9---------------10-----------------------7----------------------
-10-----------9---------------10-------------------7--------------------------
--8-----------7----------------8-----------5---8------------------------------
------0---0-------0---0---0--------0---0--------------------------------------
 

------------------------------------------------------------------------------
------------------------------------------------------------------------------
-10-----------9---------------10-----------9/10-9/10-13\10--------------------
-10-----------9---------------10----------------------------------------------
--8-----------7----------------8-----------7/8--7/8--11\8---------------------
------0---0-------0---0---0--------0---0--------------------------------------
 

-------------------------------------------5----------------------------------
-----------------------------------------------6------------------------------
-10-----------9---------------10-------------------7--------------------------
-10-----------9---------------10-------------------------------7*8------------
--8-----------7----------------8-----------------------5---8------------------
------0---0-------0---0---0--------0---0--------------------------------------

                                                                              
------------------------------------------------------------------------------
------------------------------------------------------------------------------
-10-----------9---------------10-----------9/10-9/10-13\10--------------------
-10-----------9---------------10----------------------------------------------
--8-----------7----------------8-----------7/8--7/8--11\8---------------------
------0---0-------0---0---0--------0---0--------------------------------------

                                             The Thor-a-zine
                                       Play fill 1 here
------------------------------------------------------------------------------
---------------------------------------------------------------6---6*9--------
-------------------------------------------------------5---7------------9/10--
---------------------------------------------------7--------------------------
--8-----------7----------------8-----------5---8------------------------------
------0---0-------0---0---0--------0---0--------------------------------------
 Shuffle                                                         Come on!          
Fill 1
-------------------
-15b17--------r15--
-------------------
-------------------
-------------------
-------------------

|----------7-------------------9----------------------------------------------
|--------8-----8------------10----10-----------8-/12--8---------10------------
|------9----------------11------------------7-----------------9----12-11/12---
|---9---------------11-------------------9-----------------11-----------------
|7---------------9-------------------10-----------------12--------------------
|-----------------------------------------------------------------------------
|                                                            I'm getting anxious
|
|-----------------------------------------------------------------------------
|-----------------------------------------------------------------------------
|-----------------------------------------------------------------------------
|-------2--------------4--------------------5------------------7--------------
|2---2--2--------4--4--4--------------5--5--5------------7--7--7--------------
|0---0--0--------2--2--2--------------3--3--3------------5--5--5--------------
                                                                              
 Guitar 1
|----------7-------------------9----------------------------------------------
|--------8-----8------------10----10-----------8-/12--8---------10------------
|------9----------------11------------------7-----------------9----12-11/12---
|---9---------------11-------------------9-----------------11-----------------
|7---------------9-------------------10-----------------12--------------------
|-----------------------------------------------------------------------------
|                                I want it now                             Oh 
|Guitar 2
|-----------------------------------------------------------------------------
|-----------------------------------------------------------------------------
|-----------------------------------------------------------------------------
|-------2--------------4--------------------5------------------7--------------
|2---2--2--------4--4--4--------------5--5--5------------7--7--7--------------
|0---0--0--------2--2--2--------------3--3--3------------5--5--5--------------


Play these figures three times under solo
|-----------------------------------------------------------------------------
|-----------------------------------------------------------------------------
|-----------------------------------------------------------------------------

|-----------------------------------------------------------------------------
|7-----5----7-----------------7-----5----7---9h10p9h10----7-----5----7--------
|----0----0------0-0-0-0-0-0------0----0----------------------0----0-----0-0--
| Yeah  Yeah                                                                
|
|-----------------------------------------------------------------------------
|-----------------------------------------------------------------------------
|---------------------5--5----5----5--7---------------------------------------
|---------------------5--5----5----5--7---------------------------------------
|-----------7----5----3--3----3----3--5---------------------------------------
|0-0-0-0-------0--------------------------------------------------------------
                                                                              
Solo guitar                                             Harm.'s
|-----------------------------------------------------------------------------

|---------------15b17-----------------------------------4^--------------------
|---------12----------------2b4r2b4~~~~~~~r2----0------------4^---------\-----
|7/14--------14---------------------------------------------------------------
|-----------------------------------------------------------------------------
|-----------------------------------------------------------------------------
|                                          Use trem.bar.        
|
|--------------------12-15p12-14b15--14----14b15r14---14----14b15~~r14--------
|15b17---r15b17~~r15----------------------------------------------------------
|-----------------------------------------------------------------------------
|-----------------------------------------------------------------------------
|-----------------------------------------------------------------------------
|-----------------------------------------------------------------------------
|                                                                             
|
|14h15p14p12-15-12-12-14-15-15-14-12-15-12-12-14-15-15-14-12-12-x-12-14-15----
|-----------------------------------------------------------------------------
|-----------------------------------------------------------------------------
|-----------------------------------------------------------------------------
|-----------------------------------------------------------------------------
|-----------------------------------------------------------------------------

|                                                                                
|
|15-14-14-15-12-12-15-15-15/17-----------17b19-----17b19---17b19r17---15------
|-----------------------------------------------------------------------------
|-----------------------------------------------------------------------------
|-----------------------------------------------------------------------------
|-----------------------------------------------------------------------------

|-----------------------------------------------------------------------------
|                                                                             
|
|17p14-15-14-15-14-12-12-15-12-14-14-15-14-12-12h14p12-15p12------------------
|------------------------------------------------------------15b17~~~~~~~~~~~~
|-----------------------------------------------------------------------------
|-----------------------------------------------------------------------------
|-----------------------------------------------------------------------------
|-----------------------------------------------------------------------------
|                                                                             
|
|-----------------------------------------------------------------------------
|r15p12h15p12-----------------------------------------------------------------
|-------------14p12-14b15r14p12h14p12\11--------11*12------------11-----------
|----------------------------------------------------------12---------12------
|-----------------------------------------------------------------------------
|-----------------------------------------------------------------------------
|                                                                             
|
|-----------------------------------------------------------------------------
|-----------------------------------------------------------------12-15p12----
|11*12---12-12-12b14r12-11*12-------14p12-14b16r14p12h14p12-14b16-------------
|-----------------------------------------------------------------------------
|-----------------------------------------------------------------------------
|-----------------------------------------------------------------------------
|                                                                             
|
|-----------------------------------------------------------------------------
|------12-15p12-------12-12-15p12-------12-12-15p12-------12-12-15p12-15------
|14b16----------14b16-------------14b16-------------14b16---------------------
|-----------------------------------------------------------------------------
|-----------------------------------------------------------------------------
|-----------------------------------------------------------------------------
|                                                                             
|
|-----------------------------------------------------------------------------
|15b17~~~~~~~~r17-------------------------------------------------------------
|-----------------------------------------------------------------------------
|--------------------2/10---p9-------------------------9h10h12p9--------------
|------------------------------10\-------------9h10h12-----------10\----------
|------------------------------------------/12--------------------------------
                                                                              
 Guitar 1
|-----------------------------------------------------------------------------
|-----------------------------------------------------------------------------
|-----------------------------------------------------------------------------
|------------9h10h12p9-------------------------------/10---p9-----------------
|----9h10h12-----------10\--------------------7---7------------10\------------
|/12--------------------------------------------------------------------------
|
|-----------------------------------------------------------------------------
|-----------------------------------------------------------------------------
|-----------------------------------------------------------------------------
|------------9-10-12-9-------------------------9-10-12-9----------------------
|----9h10h12-----------12\-------------9h10h12-----------12\------------------
|/12-------------------------------/12----------------------------------------
                                                                             
  Guitar 2
|-----------------------------------------------------------------------------
|-----------------------------------------------------------------------------
|-----------------------------------------------------------------------------
|--------------------5---5-5--5--------7---7-7--7--------9---9-9--9----5---7--
|2---2-2---2-2-------3---3-3--3--------5---5-5--5--------7---7-7--7----3---5--
|0---0-0---0-0----------------------------------------------------------------
|
|
|-----------------------------------------------------------------------------
|-----------------------------------------------------------------------------
|-----------------------------------------------------------------------------
|--------------------5---5-5--5--------7---7-7--7--------9---9-9--9----5---7--
|2---2-2---2-2-------3---3-3--3--------5---5-5--5--------7---7-7--7----3---5--
|0---0-0---0-0----------------------------------------------------------------
                                                                              

--------------------
--------------------
--------------------
-9-9-9-9----9-9-9-9-
-7-7-7-7----7-7-7-7-
--------------------


------------------------------------------------------------------------------
------------------------------------------------------------------------------
-10-----------9---------------10-----------9/10-9/10-13\10--------------------
-10-----------9---------------10----------------------------------------------
--8-----------7----------------8-----------7/8--7/8--11\8---------------------
------0---0-------0---0---0--------0---0--------------------------------------
                                             The Thor-a-zine
                                                                              
------------------------------------------------------------------------------
------------------------------------------------------------------------------
-------------------------------------------------5-----5---/7-----------------
-------------------------------------------------5-----5---/7-----------------
------------------7*8----10----------------------3-----3---/5-----------------
-0----0----0----0-------------0----0----0----0--------------------------------
 Shuffle                 Yeah

------------------------------------------------------------------------------
------------------------------------------------------------------------------
-10-----------9---------------10-----------9/10-9/10-13\10--------------------
-10-----------9---------------10----------------------------------------------
--8-----------7----------------8-----------7/8--7/8--11\8---------------------
------0---0-------0---0---0--------0---0--------------------------------------


------------------------------------------------------------------------------
------------------------------------------------------------------------------
-------------------------------------------------5-----5---/7-----------------
-------------------------------------------------5-----5---/7-----------------
------------------7*8----10----------------------3-----3---/5-----------------
-0----0----0----0-------------0----0----0----0--------------------------------
Ah,ha...

------------------------------------------------------------------------------
------------------------------------------------------------------------------
-10-----------9---------------10-----------9/10-9/10-13\10--------------------
-10-----------9---------------10----------------------------------------------
--8-----------7----------------8-----------7/8--7/8--11\8---------------------
------0---0-------0---0---0--------0---0--------------------------------------


--------------------
--------------------
--------------------
-9-9-9-9----9-9-9-9-
-7-7-7-7----7-7-7-7-
--------------------

The End