Song  : Last Dawn
Band  : SAVATAGE
Album : Hall Of The Mountain King


Tablature Explanation:

	     ah = Artificial Harmonic
	     /  = Slide Up
	     \  = Slide Down
	     h  = Hammer On
	     p  = Pull Off

The intro goes like this:
   Dm               Fm                   Cm              Ebm
E|---------5----------------8--------|-----------3---------------6--------|
B|-----------6----------------9------|-------------4---------------7------|
G|-----7-------7-------10-------10---|-------5-------5-------8-------8----|
D|---7---------------10--------------|-----5---------------8--------------|
A|-5----------------8----------------|---3---------------6----------------|
E|-----------------------------------|------------------------------------| 
   Bbm              Dbm                 Abm              Bm
E|---------1----------------4--------|------------------------------------|
B|-----------2----------------5------|-----------4---------------7--------|
G|-----3-------3--------6-------6----|-------------4---------------7------|
D|---3----------------6--------------|-------6-------6-------9-------9----|
A|-1----------------4----------------|-----6---------------9--------------|
E|-----------------------------------|---4---------------7----------------|
   Bbm
E|----------------------|  
B|-------2-1h2----------|  
G|-----3-------3--------|  x2
D|---3-----------3------|  
A|-1--------------------|  
E|------------------1-1-|  

-Repeat once-

And then it goes... A ah E|----0-|----------0-----------------3/5--5-| B|----2-|------2h3---3-2h3p2p0-------3/5--5-| G|----2-|----------------------2------------| D|----2-|-----------------------------------| A|----0-|-----------------------------------| E|------|-----------------------------------| E|---5----5----------------------------------------------5h6p5-5-----------| B|----------6---------6-----------6p5--5\3--3/5---------------8-6-5h6------| G|------------7-----7---7--------------------------------------------------| D|---0---------------------------------------------------------------------| A|---------------0-----------------3----3----3-----------------------------| E|-------------------------------------------------------------------------| E|--------5-----------------------3p1--1p0--0h1p0------5h8p5-5-------------| B|---5------6---------6-------------------------------------8-8-5h6--------| G|------7-----7-----7---7--------------------------------------------------| D|---0---------------------------------------------------------------------| A|---------------0-----------------3----3-----3----------------------------| E|-------------------------------------------------------------------------| E|--------5-----------------------5\3--3\1--1\0---------5\3--3\1--1\0------| B|---5------6---------6----------------------------------------------------| G|------7-----7-----7---7--------------------------------------------------| D|---0---------------------------------------------------------------------| A|---------------0-----------------3----3----3-----------3----3----3-------| E|-------------------------------------------------------------------------| E|----5--3h5p3-3\1--1\0-------------3-1-0h1p0------------------------------|| B|--------------------------------1-----------3--------1-----1-------------|| G|-------------------------------------------------------------------------|| D|-------------------------------------------------------------------------|| A|----3----3----3----3---------------------------------3-----3-------------|| E|-------------------------------------------------------------------------|| Well...This is it (I hope). If you have any suggestions or corrections please email me! Transcripted by : Nikos Kanaras Email : geiaskei@rocketmail.com