Tabulature for "Strange Wings" (1st Solo)
Off the album "Hall Of The Mountain King"
Written by Savatage

Transcribed by Darrigan Haese Darrigan@gmx.net

Hi folks. Here is the little but cool guitar intro Chris play on
Strange Wings. At least it is what I play....

'-Bend a half step
"-Bend a whole step
rb = release bend
^ = hammer on
 = pull off
~ = let ring....

|------------------------------------------------------------------------|
|-13"-(rb)-13-10^1310---------------------------------------------------|
|-----------------------12"-12-10-12---10^1210---9^109^10--------------|
|------------------------------------------------------------------------|
|------------------------------------------------------------------------|
|------------------------------------------------------------------------|

|--------------------------------------15-13-13-12-12-13-----------------|
|------------------------------------------------------------------------|
|-9^109----9-------9----9----12-10-------------------------------------|
|--------10---10------10---10--------------------------------------------|
|------------------------------------------------------------------------|
|------------------------------------------------------------------------|

|-1310-----10---1310-----10---1310-----10---1310-----10--------------|
|-------^13------------^13------------^13------------^13-----------------|
|------------------------------------------------------------------------|
|------------------------------------------------------------------------|
|------------------------------------------------------------------------|
|------------------------------------------------------------------------|

|-1310^1310^1310--------13-13-13^1713-----13-13^1713----------------|
|-------------------13~-------------------^15-------------^15------------|
|------------------------------------------------------------------------|
|------------------------------------------------------------------------|
|------------------------------------------------------------------------|
|------------------------------------------------------------------------|

|-13-13^1713^1713^1713^1713^1713^1713^1713^17---------------------|
|-------------------------------------------------15~--------------------|
|------------------------------------------------------------------------|
|------------------------------------------------------------------------|
|------------------------------------------------------------------------|
|------------------------------------------------------------------------|

I don't believe it is a 100% perfect..  but it should give at least a
littlehint on what it's all about. Listen to the song to get the feeling and
the correct note values....