Tabulature for "Surrender"
Off the album "Poets and Madmen"
Written by Savatage

Transcribed by Patrick van der Horst and Jacques Moch

						2 Times
e-|--------------------------------------------------------|
B-|--------------------------------------------------------|
G-|------7--9--10--6----7~~--------------------------------|
D-|--------------------------7----8----5----7~~------------|
A-|--------------------------------------------------------|
E-|--------------------------------------------------------|

						3 Times
e-|--------------------------------------------------------|
B-|--------------------------------------------------------|
G-|------7--9--10--6----7~~--------------------------------|
D-|--------------------------7----8----5----7~~------------|
A-|--------------------------------------------------------|
E-|--------------------------------------------------------|
      When in your live did you surr  -   ender ?
      Late in the night do  you re    -   member?
      What were the dreams that you be -  trayed then?


e-|--------------------------------------------------------|
B-|--------------------------------------------------------|
G-|------7--9--10--6----7~~--------------------------------|
D-|--------------------------7----8----5----8~~--7~~-------|
A-|--------------------------------------------------------|
E-|--------------------------------------------------------|
      Would you go back if you could save them  now?

 G                          A
Did you believe there was something more
 G                      A
Waiting behind some forgotten door
 F                      A
Or was that all long before


Bridge (whole bridge 2 Times)
e-|--------------------------------------------------------|
B-|--------------------------------------------------------|
G-|--------------------------------------------------------|
D-|----2-----5--2---8--7--5--2----2--5--2---5--7--8--2-----|
A-|----2-----5--2---8--7--5--2----2--5--2---5--7--8--2-----|
E-|----0--0--3--0---6--5--3--0----0--3--0---3--5--6--0-----|
p.m.     ...                     ...       .........


e-|--------------------------------------------------------|
B-|--------------------------------------------------------|
G-|----------------------------------7---------7-----------|
D-|----2-----5--2---8--7--5--2----2--7------2--7-----2-----|
A-|----2-----5--2---8--7--5--2----2--5------2--5-----2-----|
E-|----0--0--3--0---6--5--3--0----0---------0--------0-----|
p.m.     ...

						2 Times
e-|--------------------------------------------------------|
B-|--------------------------------------------------------|
G-|--5-5-5-5-5-5-5-5--8--8-8\5--5-5-5-5-5-5-5-5--3--3-3/5--|
D-|--5-5-5-5-5-5-5-5--8--8-8\5--5-5-5-5-5-5-5-5--3--3-3/5--|
A-|--3-3-3-3-3-3-3-3--6--6-6\3--3-3-3-3-3-3-3-3--1--1-1/3--|
E-|--------------------------------------------------------|
p.m..................   ...    .................   ...
   You felt the pressure...


e-|---------------------------------4----------------------|
B-|---------------------------------4----------------------|
G-|---------------------------------5----------------------|
D-|-------6---------------------------------12---12-12-12--|
A-|-------6---------(hold)------------------12---12-12-12--|
E-|-------4---------------------------------10---10-10-10--|
p.m.                                            ..........
         Time        is         running    down

  
                                3 Times   then
e-|-----------------------------------------|--------------|
B-|-----------------------------------------|--------------|
G-|-----------------------------------------|--------------|
D-|---3--2--2----3--2--2----3--2--3--2--5---|-----7~~------|
A-|---3--2--2----3--2--2----3--2--3--2--5---|-----7~~------|
E-|---1--0--0----1--0--0----1--0--1--0--3---|-----5~~------|
p.m.    ......     ......     ...   ...
   Moments of reason that we hope to find
   Are we a thought somewhere in godīs mind 
   A work of art that he has never signed          No

                                3 Times   then
e-|-----------------------------------------|--------------|
B-|-----------------------------------------|--------------|
G-|-----------------------------------------|-----5---9----|
D-|---3--2--2----3--2--2----3--2--3--2--5---|-7---5---9----|
A-|---3--2--2----3--2--2----3--2--3--2--5---|-7---3---7----|
E-|---1--0--0----1--0--0----1--0--1--0--3---|-5------------|
p.m.    ......     ......     ...   ...
   Children and mirrors have no memory
   They reflect us for that is all they see
 They are the us that is still yet to be  And so we carry on


Bridge (whole bridge 2 Times)
e-|--------------------------------------------------------|
B-|--------------------------------------------------------|
G-|--------------------------------------------------------|
D-|----2-----5--2---8--7--5--2----2--5--2---5--7--8--2-----|
A-|----2-----5--2---8--7--5--2----2--5--2---5--7--8--2-----|
E-|----0--0--3--0---6--5--3--0----0--3--0---3--5--6--0-----|
p.m.     ...                     ...       .........


e-|--------------------------------------------------------|
B-|--------------------------------------------------------|
G-|----------------------------------7---------7-----------|
D-|----2-----5--2---8--7--5--2----2--7------2--7-----2-----|
A-|----2-----5--2---8--7--5--2----2--5------2--5-----2-----|
E-|----0--0--3--0---6--5--3--0----0---------0--------0-----|
p.m.     ...

						2 Times
e-|--------------------------------------------------------|
B-|--------------------------------------------------------|
G-|--5-5-5-5-5-5-5-5--8--8-8\5--5-5-5-5-5-5-5-5--3--3-3/5--|
D-|--5-5-5-5-5-5-5-5--8--8-8\5--5-5-5-5-5-5-5-5--3--3-3/5--|
A-|--3-3-3-3-3-3-3-3--6--6-6\3--3-3-3-3-3-3-3-3--1--1-1/3--|
E-|--------------------------------------------------------|
p.m..................   ...    .................   ...
    The clock is ticking...


e-|---------------------------------4----------------------|
B-|---------------------------------4----------------------|
G-|---------------------------------5----------------------|
D-|-------6---------------------------------12---12-12-12--|
A-|-------6---------(hold)------------------12---12-12-12--|
E-|-------4---------------------------------10---10-10-10--|
p.m.                                            ..........
         Or          can    not    be      found


                                3 Times   then
e-|-----------------------------------------|--------------|
B-|-----------------------------------------|--------------|
G-|-----------------------------------------|--------------|
D-|---3--2--2----3--2--2----3--2--3--2--5---|-----7~~------|
A-|---3--2--2----3--2--2----3--2--3--2--5---|-----7~~------|
E-|---1--0--0----1--0--0----1--0--1--0--3---|-----5~~------|
p.m.    ......     ......     ...   ...
   Searching your mind for correspondence
   From Joseph and mary and their only son
   Is their silence something you have done      No

                                3 Times   then
e-|-----------------------------------------|--------------|
B-|-----------------------------------------|--------------|
G-|-----------------------------------------|-----5---9----|
D-|---3--2--2----3--2--2----3--2--3--2--5---|-7---5---9----|
A-|---3--2--2----3--2--2----3--2--3--2--5---|-7---3---7----|
E-|---1--0--0----1--0--0----1--0--1--0--3---|-5------------|
p.m.    ......     ......     ...   ...
   And in the end what have you defied
   To end up so nearly crucified
   Just let me know when you decide    That all hope is gone


 						4 Times
e-|--------------------------------------------------------|
B-|--------------------------------------------------------|
G-|--------------------------------------------------------|
D-|--------------------------------------------------------|
A-|------2~-----2~-----2~-----2~-----2~-----2~-------------|
E-|----------X-----X------X------X------X-------1--1~------|


(This one and following Riff 2 Times together)
e-|--------------------------------------------------------|
B-|--------------------------------------------------------|
G-|--------------------------------------------------------|
D-|--------------------------------------------------------|
A-|------2~-----2~-----2~-----2~-----2~-----2~-------------|
E-|----------X-----X------X------X------X-------1--1~------|
  |
e-|--------------------------------------------------------|
B-|----------------------------------/8-X--7-6~~-----------|
G-|-----/4------4--6---7--6---4----------------------------|
D-|----------7-------------------7-------------------------|
A-|--------------------------------------------------------|
E-|--------------------------------------------------------|


e-|--------------------------------------------------------|
B-|--------------------------------------------------------|
G-|--------------------------------------------------------|
D-|--------------------------------------------------------|
A-|------2~-----2~-----2~-----2~-----2~-----2~-------------|
E-|----------X-----X------X------X------X-------1--1~------|
  |
e-|--------------------------------------------------------|
B-|--------------------------------------------------------|
G-|-----/4------4--6---7--6---4------4--6---4--------------|
D-|----------7-------------------7--------------5--5~------|
A-|--------------------------------------------------------|
E-|--------------------------------------------------------|

(solo Riff)				2 Times alone
e-|--------------------------------------------------------|
B-|--------------------------------------------------------|
G-|°------5~~-----------8----7----6~~-------6----8--------°|
D-|°------5~~-----------8----7----6~~-------6----8--------°|
A-|-------3~~-----------6----5----4~~-------4----6---------|
E-|--------------------------------------------------------|

Solo  (with Solo Riff)			2 Times (whole Riff)
e-|-----------------15h19p15-------------------------------|
B-|--------------16----------16----------------------------|
G-|°----------17----------------17-------------------------|
D-|°-------17----------------------17----------------------|
A-|--15-18----------------------------18-15----------------|
E-|--------------------------------------------------------|


e-|---------------------------------15h19p15---------------|
B-|------------------------------16----------16------------|
G-|---------------------------17----------------17--------°|
D-|------------------------17----------------------17-----°|
A-|-18---17---16~~---15-18----------------------------18-15|
E-|--------------------------------------------------------|


e-|-----------------15h19p15-------------------------------|
B-|--------------16----------16----------------------------|
G-|-----------17----------------17-------------------------|
D-|--------17----------------------17----------------------|
A-|--15-18----------------------------18-15----16---18---15|
E-|--------------------------------------------------------|


with Piano Interlude
e-|--------------------------------------------------------|
B-|--------------------------------------------------------|
G-|------5~~------5~~--------------------------------------|
D-|------5~~------5~~-------8--8-8---8--8-8---8--8--8------|
A-|------3~~------3~~-------8--8-8---8--8-8---8--8--8------|
E-|-------------------------6--6-6---6--6-6---6--6--6------|
p.m.                          .....    .....    ...

e-|--------------------------------------------------------|
B-|--------------------------------------------------------|
G-|--------------------------------------------------------|
D-|----7--7-7---7--7-7---7--7--7----7-7-7-7-7-7-7-7--------|
A-|----7--7-7---7--7-7---7--7--7----7-7-7-7-7-7-7-7--------|
E-|----5--5-5---5--5-5---5--5--5----5-5-5-5-5-5-5-5--------|
p.m.     .....    .....    ...       ..... .....


Bridge (whole bridge 2 Times)
e-|--------------------------------------------------------|
B-|--------------------------------------------------------|
G-|--------------------------------------------------------|
D-|----2-----5--2---8--7--5--2----2--5--2---5--7--8--2-----|
A-|----2-----5--2---8--7--5--2----2--5--2---5--7--8--2-----|
E-|----0--0--3--0---6--5--3--0----0--3--0---3--5--6--0-----|
p.m.     ...                     ...       .........


e-|--------------------------------------------------------|
B-|--------------------------------------------------------|
G-|----------------------------------7---------7-----------|
D-|----2-----5--2---8--7--5--2----2--7------2--7-----2-----|
A-|----2-----5--2---8--7--5--2----2--5------2--5-----2-----|
E-|----0--0--3--0---6--5--3--0----0---------0--------0-----|
p.m.     ...


Piano Interlude

E5 A5 E5 A5


Play Riff till end
e-|--------------------------------------------------------|
B-|--------------------------------------------------------|
G-|----9--9-9----------9--9-----9--9-9----------9--9-------|
D-|----9--9-9----------9--9-----9--9-9----------9--9-------|
A-|----7--7-7--7br-~~--7--7-----7--7-7--7br-~~--7--7-------|
E-|--------------------------------------------------------|
p.m.     .....           ...      .....           ...

e-|--------------------------------------------------------|
B-|--------------------------------------------------------|
G-|------5---5-5--5----5-5-5-----5---5-5--5----5-5-5-------|
D-|------5---5-5--5----5-5-5-----5---5-5--5----5-5-5-------|
A-|------3---3-3--3----3-3-3-----3---3-3--3----3-3-3-------|
E-|--------------------------------------------------------|
p.m.        .....     .......       .....     ........