Tabulature for "Power Of The Night"
Off the album "Gutter Ballet"
Written by Savatage

Transcribed by Matt "The Seventh Son" Venuti venuti@usa.net

Tunning  (low to high)  C G C F A D
  

-|-------------------------------------------------|--------------------------
-|-------------------------------------------------|--------------------------
-|-------------------------------------------------|--------------------------
-|--------------------3---2-2-3-5-------------3--5-|--------------------------
-|--------5-----3-----------------5-----5-----1--3-|--------------------------
-|-0--0-0---0-0---0-0---0-----------0-0---0-0------|--------------------------
     Intro Riff                                                               

-|----------------------------------------------|-----------------------------
-|----------------------------------------------|-----------------------------
-|-5/-7----------5-5---8-8----------------------|-----------------------------
-|-5/-7------7---3-3---6-6--5/7------7----3---5-|-----------------------------
-|-3/-5------5--------------3/5------5----1---3-|-----------------------------
-|-------0-0-0-------0-----------0-0-0--0---0---|-----------------------------
     Verse Riff                                                               

-|-----------------------------------------------------------|----------------
-|-----------------------------------------------------------|----------------
-|-----------------------------------------------------------|----------------
-|-3---2-------------------------3---2-2-3-5-------------3-5-|----------------
-|-1---0--3--5--------5-----3----------------5-----5-----1-3-|----------------
-|--------3--5--0-0-0---0-0---00---0-----------0-0---0-0-----|----------------
      Chorus pt 1  ( 1x )                                                     

------------------------------|------------------------------|----------------
------------------------6p5-5-|------------------------------|----------------
---7--5----5/7--7-7-7---5---5-|-7--5-------------------------|----------------
---5--3----5/7--7-7-7---------|-5--3--5--------------3-3-2---|----------------
------------------------------|-------3--5-3-5-3-5-3-------5-|----------------
------------------------------|------------------------------|----------------
      Chorus pt 2 ( 3x )         4th time                                     

-|----------2-----2------------|----------------------------------------------
-|----------3-----3------------|----------------------------------------------
-|-7--5-----2-----2------------|----------------------------------------------
-|-5--3--5-----5---------------|----------------------------------------------
-|-------3-----3-----5-3-5-3-5-|----------------------------------------------
-|-----------------------------|----------------------------------------------
     End of second chorus                                                     

--|-------------------|-------------------------------------------------------
--|-------------------|-------------------------------------------------------
--|-------------------|-------------------------------------------------------
--|--0-3-2-0-2-3-5----|-------------------------------------------------------
--|-------------------|-------------------------------------------------------
--|----------------0--|-------------------------------------------------------
   At end of song  ( This is a bit off I think! )