Tabulature for "Warriors"
Off the album "Power of the Night"
Written by Savatage

Transcribed by Brent Passarella brent42@cris.com

Don't forget to drop that D!

Intro synth.  (rough cordage estimates)  

Dm       C         Dm         Bb      C          Dm
As the edge of midnight falls the warroir stands alone

Dm         C        Dm        Bb       C           Dm
Visions of the fighting past, a thousand tales untold

p.m  =====|   ======|   =====|    =|   =|
E--|---------------------------------------|
B--|---------------------------------------|
G--|o-----------------a--------------p-p--o|
D--|o-------0---------3---------0---3^2^0-o|
A--|---------------------------------------|
D--|-0----0----0----0----0----0----0----0--|

repeat 5 times
 p.m=======| =======|   ======|   =|         pick slide
E--|----------------------------------------------------
B--|----------------------------------------------------
G--|------------------a--------------p-p2---------------
D--|--------0---------3---------0---3^2^0------------\--
A--|------------------------------------0------------\--
D--|-0----0----0----0----0----0----0----0------------\--

          p.m===|          =====|          
E--|--------------------------------------------------------
B--|--------------------------------------------------------
G--|-7--5-7-------7---5---7-------7--5-7--5----3-----5------
D--|-7--5-7-------7---5---7-------7--5-7--5----3-----5------
A--|-5--3-5-------5---3---5-------5--3-5--3--0-1-0---3-0----
D--|--------0-0-0-----------0-0-0------------------5-----5--

p.m        ======|         ======|      =====|
E--|--------------------------------------------------------
B--|--------------------------------------------------------
G--|-7--5-7-------7---5---7-------7--5-7-------3-----5------
D--|-7--5-7-------7---5---7-------7--5-7-------3-----5------
A--|-5--3-5-------5---3---5-------5--3-5-------1-0---3-0----
D--|--------0-0-0-----------0-0-0--------0-0-0-----5-----5--

                                  p.m=====|  ========|  ========|  =|
E--|------------------------------------------------------------------------3-
B--|------------------------------------------------------------------------3-
G--|------------------------------------------------------------------------4-
D--|-0-------------------------3--3---------3----------3----------3----3----5-
A--|-0--------------------2----3--3---------3----------3----------3----1----5-
D--|-0--------------------2----3--3---3-3-3---3--3-3-3---3--3-3-3---3-------5-
    Let the battles of street life begin  ... with leather and chains      they

 p.m==========|  =====|  ===================|    =============|
E--|-----------------------------------------------------------------------
B--|-----------------------------------------------------------------------
G--|-----------------------------------------------------------------------
D--|-----------5-------5------------------------------------------8-8-8----
A--|-----------5-------5---5--6--5--3--5--3--2--0-----------------6-6-6----
D--|--5--5-5-5---5-5-5-----5--6--5--3--5--3--2--0-0-0-0-0--0-0-0-----------
         live their life   and they feel their own pain

     p.m.===============|          =======|  ========|   =======|  =|
E--|------------------------------1-----------------------------------------3-
B--|------------------------------1-----------------------------------------3-
G--|------------------------------------------------------------------------4-
D--|-0-------------------------3--3---------3----------3----------3----3----5-
A--|-0--------------------2----3--3---------3----------3----------3----1----5-
D--|-0--0-0-0--0-0-0-0-0--2----3--3---3-3-3---3--3-3-3---3--3-3-3---3-------5-
    The times they are chilling their bones  and they can't get away

   p.m.=======|  =====|   ======================================|
E--|-----------------------------------------------------------------------
B--|-----------------------------------------------------------------------
G--|-----------------------------------------------------------------------
D--|-----------5-------5------------------------------------------8-8-8----
A--|-----------5-------5---5--6--5--3--5--3--2--0-----------------6-6-6----
D--|--5--5-5-5---5-5-5-----5--6--5--3--5--3--2--0-0-0-0-0--0-0-0-----------
    alone in the cold watching night turn to day     

     D5             Eb5   C5    D5     D5          Eb5    Bb5  C5    C5
E--|------------------------------------------------------------------------
B--|------------------------------------------------------------------------
G--|-7---------------8-----5-----7-----7------------8-----3-----5-----5-----
D--|------------------------------------------------------------------------
A--|-5---------------6-----3-----5-----5------------6-----1-----3-----3-----
D--|------------------------------------------------------------------------
    Armed to attack                   the soldiers react                Kill

                    Eb5  C5     D5   D5           A5  C5
E--|--------------------------------------------------------
B--|--------------------------------------------------------
G--|----------------8-----5-----7-----7------------2---5----
D--|-----------------------------------------------2---5----
A--|----------------6-----3-----5-----5------------0---3----
D--|--------------------------------------------------------
or be killed is the life that they live

E--|--------------------------------------------------------
B--|--------------------------------------------------------
G--|-7--5-7-------7---5---7-------7--5-7-------3-----5------
D--|-7--5-7-------7---5---7-------7--5-7-------3-----5------
A--|-5--3-5-------5---3---5-------5--3-5-------1-0---3-0----
D--|--------0-0-0-----------0-0-0--------0-0-0-----5-----5--
   Warriors       warr-i-ors      warriors   of the world

E--|--------------------------------------------------------
B--|--------------------------------------------------------
G--|-7--5-7-------7---5---7-------7--5-7-------3-----5------
D--|-7--5-7-------7---5---7-------7--5-7-------3-----5------
A--|-5--3-5-------5---3---5-------5--3-5-------1-0---3-0----
D--|--------0-0-0-----------0-0-0--------0-0-0-----5-----5--
   Warriors       warr-i-ors      warriors   of the world
    
                                 p.m.====|    =======|  =======|   =|
E--|------------------------------------------------------------------------3-
B--|------------------------------------------------------------------------3-
G--|------------------------------------------------------------------------4-
D--|-0-------------------------3--3---------3----------3----------3----3----5-
A--|-0--------------------2----3--3---------3----------3----------3----1----5-
D--|-0--------------------2----3--3---3-3-3---3--3-3-3---3--3-3-3---3-------5-
  On the streets they are roaming the night, out to claim their domain

p.m.=========|   =====|   =====================================|
E--|-----------------------------------------------------------------------
B--|-----------------------------------------------------------------------
G--|-----------------------------------------------------------------------
D--|-----------5-------5------------------------------------------8-8-8----
A--|-----------5-------5---5--6--5--3--5--3--2--0-----------------6-6-6----
D--|--5--5-5-5---5-5-5-----5--6--5--3--5--3--2--0-0-0-0-0--0-0-0-----------
      One more pointless battle with noithing to gain

      p.m.=============|            =====|   ========|   ========| 
E--|------------------------------1-----------------------------------------3-
B--|------------------------------1-----------------------------------------3-
G--|------------------------------------------------------------------------4-
D--|-0-------------------------3--3---------3----------3----------3----3----5-
A--|-0--------------------2----3--3---------3----------3----------3----1----5-
D--|-0--0-0-0--0-0-0-0-0--2----3--3---3-3-3---3--3-3-3---3--3-3-3---3-------5-
    Life is a hell for them  living with the shadows of death
 
    p.m======|    ====|    =====================|  =============|
E--|-----------------------------------------------------------------------
B--|-----------------------------------------------------------------------
G--|-----------------------------------------------------------------------
D--|-----------5-------5------------------------------------------8-8-8----
A--|-----------5-------5---5--6--5--3--5--3--2--0-----------------6-6-6----
D--|--5--5-5-5---5-5-5-----5--6--5--3--5--3--2--0-0-0-0-0--0-0-0-----------
    Scratching and clawing till no souls are left

     D5             Eb5   C5    D5     D5          Eb5    Bb5  C5    C5
E--|------------------------------------------------------------------------
B--|------------------------------------------------------------------------
G--|-7---------------8-----5-----7-----7------------8-----3-----5-----5-----
D--|------------------------------------------------------------------------
A--|-5---------------6-----3-----5-----5------------6-----1-----3-----3-----
D--|------------------------------------------------------------------------
    Armed to attack                   the soldiers react                Kill

                    Eb5  C5     D5   D5           A5  C5
E--|--------------------------------------------------------
B--|--------------------------------------------------------
G--|----------------8-----5-----7-----7------------2---5----
D--|-----------------------------------------------2---5----
A--|----------------6-----3-----5-----5------------0---3----
D--|--------------------------------------------------------
or be killed is the life that they live

        p.m.====|           =====|      =====|
E--|--------------------------------------------------------
B--|--------------------------------------------------------
G--|-7--5-7-------7---5---7-------7--5-7-------3-----5------
D--|-7--5-7-------7---5---7-------7--5-7-------3-----5------
A--|-5--3-5-------5---3---5-------5--3-5-------1-0---3-0----
D--|--------0-0-0-----------0-0-0--------0-0-0-----5-----5--
   Warriors       warr-i-ors      warriors   of the world

          p.m.===|         =====|       =====|
E--|--------------------------------------------------------
B--|--------------------------------------------------------
G--|-7--5-7-------7---5---7-------7--5-7-------3-----5------
D--|-7--5-7-------7---5---7-------7--5-7-------3-----5------
A--|-5--3-5-------5---3---5-------5--3-5-------1-0---3-0----
D--|--------0-0-0-----------0-0-0--------0-0-0-----5-----5--
   Warriors       warr-i-ors      warriors   of the world

      p.m.=======|  ===========|  =======| 
E--|---------------------------------------------------
B--|---------------------------------------------------
G--|---------------------------------------------------
D--|-2-------------2-------------2---------2--3----3---
A--|-0--0-0-0--0-0-0--0-0-0--0-0-0--0-0-0--0--1----1---
D--|---------------------------------------------------

      p.m.========|  ==========|  ========|
E--|---------------------------------------------------
B--|---------------------------------------------------
G--|---------------------------------------------------
D--|-2-------------2-------------2---------2--3----4---
A--|-0--0-0-0--0-0-0--0-0-0--0-0-0--0-0-0--0--1----2---
D--|---------------------------------------------------

(guitar solo)
     p.m.=========|  =========|  ========|
E--|---------------------------------------------------
B--|---------------------------------------------------
G--|---------------------------------------------------
D--|-4-------------4-------------4---------4--7----7---
A--|-2--2-2-2--2-2-2--2-2-2--2-2-2--2-2-2--2--5----5---
D--|---------------------------------------------------

      p.m.=======|   ===========|  ======|
E--|---------------------------------------------------
B--|---------------------------------------------------
G--|---------------------------------------------------
D--|-4-------------4-------------4---------4--7----7---
A--|-2--2-2-2--2-2-2--2-2-2--2-2-2--2-2-2--2--5----5---
D--|---------------------------------------------------

      p.m.=======|  ===========|  =======|
E--|---------------------------------------------------
B--|---------------------------------------------------
G--|---------------------------------------------------
D--|---------------------------------------------------
A--|-2-------------2-------------2---------2--5----5---
D--|-2--2-2-2--2-2-2--2-2-2--2-2-2--2-2-2--2--5----5---

     p.m.========|  ===========|  =======|
E--|---------------------------------------------------
B--|---------------------------------------------------
G--|---------------------------------------------------
D--|---------------------------------------------------
A--|-2-------------2-------------2---------2--5----5---
D--|-2--2-2-2--2-2-2--2-2-2--2-2-2--2-2-2--2--5----5---

E--|----------------------------------------------------------
B--|----------------------------------------------------------
G--|----------------------------------------------------------
D--|-3--------------------------2------------------3------5---
A--|-1--------------------------0------------------1------3---
D--|----------------------------------------------------------
     They call the streets of hell their home   they're not alone

  p.m.======================================================================|
E--|------------------------------------------------------------------------
B--|------------------------------------------------------------------------
G--|------------------------------------------------------------------------
D--|------------------------------------------------------------------------
A--|-5--3--5--0--5--3--5--0--5--3--5--0--5--3--5--0--5--3--5--0--5--3--5--0-
D--|------------------------------------------------------------------------
                                                                     
   p.m.===================|          =====================================|
E--|------------------------------------------------------------------------
B--|------------------------------------------------------------------------
G--|-------------------------7--7--7----------------------------------------
D--|-------------------------7--7--7----------------------------------------
A--|-5--3--5--0--5--3--5--0--5--5--5--0--5--3--5--0--5--3--5--0--5--3--5--0-
D--|------------------------------------------------------------------------
    a thousand tales untold                                        The streets
  p.m.========|
E--|---------------------------
B--|---------------------------
G--|---------------------------
D--|-------------3------5------
A--|-5--3--5--0--1-0----3-0----
D--|-----------------5------5--
   of hell thier home

       p.m.====|           =====|      =====|
E--|--------------------------------------------------------
B--|--------------------------------------------------------
G--|-7--5-7-------7---5---7-------7--5-7-------3-----5------
D--|-7--5-7-------7---5---7-------7--5-7-------3-----5------
A--|-5--3-5-------5---3---5-------5--3-5-------1-0---3-0----
D--|--------0-0-0-----------0-0-0--------0-0-0-----5-----5--
   Warriors       warr-i-ors      warriors   of the world

          p.m.===|         =====|       =====|
E--|--------------------------------------------------------
B--|--------------------------------------------------------
G--|-7--5-7-------7---5---7-------7--5-7-------3-----5------
D--|-7--5-7-------7---5---7-------7--5-7-------3-----5------
A--|-5--3-5-------5---3---5-------5--3-5-------1-0---3-0----
D--|--------0-0-0-----------0-0-0--------0-0-0-----5-----5--
   Warriors       warr-i-ors      warriors   of the world

       p.m.====|           =====|      =====|
E--|--------------------------------------------------------
B--|--------------------------------------------------------
G--|-7--5-7-------7---5---7-------7--5-7-------3-----5------
D--|-7--5-7-------7---5---7-------7--5-7-------3-----5------
A--|-5--3-5-------5---3---5-------5--3-5-------1-0---3-0----
D--|--------0-0-0-----------0-0-0--------0-0-0-----5-----5--
   Warriors       warr-i-ors      warriors   of the world

          p.m.===|         =====|       =====|
E--|--------------------------------------------------------
B--|--------------------------------------------------------
G--|-7--5-7-------7---5---7-------7--5-7-------3-----5------
D--|-7--5-7-------7---5---7-------7--5-7-------3-----5------
A--|-5--3-5-------5---3---5-------5--3-5-------1-0---3-0----
D--|--------0-0-0-----------0-0-0--------0-0-0-----5-----5--
   Warriors       warr-i-ors      warriors   of the world

E--|-----------------------------------
B--|-----------------------------------
G--|--------------------------7--5-7\--
D--|-3------5-----7-----8-----7--5-7\--
A--|-1-0----3-0---5-3-1-6-5-3-5--3-5\--
D--|-----5------5----------------------