Tabulature for "Agony and Ecstasy"
Off the album "Streets"
Written by Savatage

Transcribed by Daryl J. Bugbee bugbeed@db.erau.edu

E-]----------------------------------------------------------------------------|
B-]----------------------------------------------------------------------------|
G-]o----5-----3-----2-----3-----0---2-----5-----3-----2-----2-2-2-------------o|
D-]o--------------------------------------------------------2-2-2-------------o|
A-]-------0-0---0-0---0-0---0-0---0---0-0---0-0---0-0---0---0-0-0---0-0-0------|
E-]----------------------------------------------------------------------------|
 
         Listen     to    me    from deep down inside                four times
E-]----------------------------------------------------------------------------|
B-]----------------------------------------------------------------------------|
G-]o----5-----3-----2-----3-----0---2-----5-----3-----2-----2-2-2-------------o|
D-]o--------------------------------------------------------2-2-2-------------o|
A-]-------0-0---0-0---0-0---0-0---0---0-0---0-0---0-0---0---0-0-0---0-0-0------|
E-]----------------------------------------------------------------------------|
         I'm the madness that just will not die
         With no regrets of what I'll do to you
         Before the night is over
         You'll be crawling to

                  Me
E-]----------------------------------------------------------------------------|
B-]----------------------------------------------------------------------------|
G-]----------------------------------------------------------------------------|
D-]----------------5---------------7-------------5-----------7-----------------|
A-]----------------5---------------7-------------5-----------7-----------------|
E-]----------------3---------------5-------------3-----------5-----------------|

             Call  me when you're weak
E-]----------------------------------------------------------------------------|
B-]----------------------------------------------------------------------------|
G-]----------------------------------------------------------------------------|
D-]----------2--------------3---------2----------------------------------------|
A-]----------2--------------3-p-------2------------1----0--------0-------------|
E-]----------0--------0-----1-^-0-----0---------------------3---------3--------|

             For me you'll lie and cheat                            three times
E-]----------------------------------------------------------------------------|
B-]----------------------------------------------------------------------------|
G-]o--------------------------------------------------------------------------o|
D-]o---------2--------------3---------2---------------------------------------o|
A-]----------2--------------3-p-------2------------1----0--------0-------------|
E-]----------0--------0-----1-^-0-----0---------------------3------------------|
             You'll never get away
             With me you're here to stay

E-]----------------------------------------------------------------------------|
B-]----------------------------------------------------------------------------|
G-]---------------5----5----5----5-------------5----5----5----5----------------|
D-]---------------5----5----5----5-------------5----5----5----5----------------|
A-]---------------3----3----3----3-------------3----3----3----3----------------|
E-]----------------------------------------------------------------------------|

    Listen D.T. cant't you see you stay with me and you'll be free   four times
E-]----------------------------------------------------------------------------|
B-]----------------------------------------------------------------------------|
G-]o--------8-\-9--9--9-----8-\-9--9--9-----8-\-9--9--9-----8-\-9--9----------o|
D-]o--------8-\-9--9--9-----8-\-9--9--9-----8-\-9--9--9-----8-\-9--9----------o|
A-]---------6-\-7--7--7-----6-\-7--7--7-----6-\-7--7--7-----6-\-7--7-----------|
E-]----------------------------------------------------------------------------|
    Even as I soothe your soul I tear you down and make you old
    You just keep coming back to buy another nickel sack
    Twelve o'clock time to greet Agony and ecstasy
    
                                                             Ecstasy
E-]----------------------------------------------------------------------------|
B-]----------------------------------------------------------------------------|
G-]o----5-----3-----2-----3-----0---2-----5-----3-----2-----------------------o|
D-]o--------------------------------------------------------------------------o|
A-]-------0-0---0-0---0-0---0-0---0---0-0---0-0---0-0---0---0-0-0---0-0-0------|
E-]----------------------------------------------------------------------------|

         I'm the cries from within When the days begin           
E-]----------------------------------------------------------------------------|
B-]----------------------------------------------------------------------------|
G-]o----5-----3-----2-----3-----0---2-----5-----3-----2-----------------------o|
D-]o--------------------------------------------------------------------------o|
A-]-------0-0---0-0---0-0---0-0---0---0-0---0-0---0-0---0---0-0-0---0-0-0------|
E-]----------------------------------------------------------------------------|
         You know you'll follow me like sheep This shepherd never sleeps

              Tell whats your price
E-]----------------------------------------------------------------------------|
B-]----------------------------------------------------------------------------|
G-]----------------------------------------------------------------------------|
D-]----------2--------------3---------2----------------------------------------|
A-]----------2--------------3-p-------2------------1----0--------0-------------|
E-]----------0--------0-----1-^-0-----0---------------------3---------3--------|

              Come skate on my ice                                  three times
E-]----------------------------------------------------------------------------|
B-]----------------------------------------------------------------------------|
G-]o--------------------------------------------------------------------------o|
D-]o---------2--------------3---------2---------------------------------------o|
A-]----------2--------------3-p-------2------------1----0--------0-------------|
E-]----------0--------0-----1-^-0-----0---------------------3------------------|
              My blades they never rust
              I'm asking you to trust

E-]----------------------------------------------------------------------------|
B-]----------------------------------------------------------------------------|
G-]---------------5----5----5----5-------------5----5----5----5----------------|
D-]---------------5----5----5----5-------------5----5----5----5----------------|
A-]---------------3----3----3----3-------------3----3----3----3----------------|
E-]----------------------------------------------------------------------------|

    Listen now the time is right and what a way to start the night   four times
E-]----------------------------------------------------------------------------|
B-]----------------------------------------------------------------------------|
G-]o--------8-\-9--9--9-----8-\-9--9--9-----8-\-9--9--9-----8-\-9--9----------o|
D-]o--------8-\-9--9--9-----8-\-9--9--9-----8-\-9--9--9-----8-\-9--9----------o|
A-]---------6-\-7--7--7-----6-\-7--7--7-----6-\-7--7--7-----6-\-7--7-----------|
E-]----------------------------------------------------------------------------|
     Spend your money endlessly Anouther grand insanity
     So D.T. here is the plan I'll make your brain a rubber band
     Time to stretch it out and greet Agony and ecstasy

                                                         Ecstasy     four times
E-]----------------------------------------------------------------------------|
B-]----------------------------------------------------------------------------|
G-]o------5-----5-----5-----5-----5---------7-----7-----7---------------------o|
D-]o--------------------------------------------------------------------------o|
A-]---------0-0---0-0---0-0---0-0---0-0-0-0---0-0---0-0---0-0-0-0-0-0----------|
E-]----------------------------------------------------------------------------|

                                                                     four times
E-]----------------------------------------------------------------------------|
B-]----------------------------------------------------------------------------|
G-]o--------5----------5----5----5----2----------------(fills)----------------o|
D-]o--------5----------5----5----5----2---------------------------------------o|
A-]---------3---0--0---3----3----3----0----------------------------------------|
E-]----------------------------------------------------------------------------|

    solo-->                                                          four times
E-]----------------------------------------------------------------------------|
B-]----------------------------------------------------------------------------|
G-]o--------------------------------------------------------------------------o|
D-]o---------2--------------3---------2---------------------------------------o|
A-]----------2--------------3-p-------2------------1----0--------0-------------|
E-]----------0--------0-----1-^-0-----0---------------------3------------------|

                                                                       <--solo
E-]----------------------------------------------------------------------------|
B-]----------------------------------------------------------------------------|
G-]---------------5----5----5----5-------------5----5----5----5----------------|
D-]---------------5----5----5----5-------------5----5----5----5----------------|
A-]---------------3----3----3----3-------------3----3----3----3----------------|
E-]----------------------------------------------------------------------------|

        Feel  my    whisper   through your haze of pain             three times
E-]----------------------------------------------------------------------------|
B-]----------------------------------------------------------------------------|
G-]o----5-----3-----2-----3-----0---2-----5-----3-----2-----2-2-2-------------o|
D-]o--------------------------------------------------------2-2-2-------------o|
A-]-------0-0---0-0---0-0---0-0---0---0-0---0-0---0-0---0---0-0-0---0-0-0------|
E-]----------------------------------------------------------------------------|
        Hear the calling of the neon vein
        See my name upon your soul's marquee

        I    am    agony           and    ecstasy
E-]----------------------------------------------------------------------------|
B-]----------------------------------------------------------------------------|
G-]-----5-----3-----2-----3-----0---2-----5-----3-----2-----2-------X\~~ ------|
D-]---------------------------------------------------------2-------X\~~ ------|
A-]-------0-0---0-0---0-0---0-0---0---0-0---0-0---0-0---0---0-------X\~~ ------|
E-]----------------------------------------------------------------------------|
 
    solo-->                                                          four times
E-]----------------------------------------------------------------------------|
B-]----------------------------------------------------------------------------|
G-]o--------------------------------------------------------------------------o|
D-]o--------h--------------h------------------h-------------5-------7---------o|
A-]-------5-^-7----------5-^-7--------------5-^-7-----------5-------7----------|
E-]-------0----------0---0----------0-0-0---0-----------0---3---0---5----------|


E-]----------------------------------------------------------------------------|
B-]----------------------------------------------------------------------------|
G-]--------3-------------4-------------5-------------6-------------7-----------|
D-]--------3-------------4-------------5-------------6-------------7-----------|
A-]--------1----1---1----2----2---2----3----3---3----4----4---4----5-----------|
E-]----------------------------------------------------------------------------|

                                                                     <--solo
E-]----------------------------------------------------------------------------|
B-]----------------------------------------------------------------------------|
G-]--------7-------------8-------------9------------10------------11-----------|
D-]--------7-------------8-------------9------------10------------11-----------|
A-]--------5----5---5----6----6---6----7----7---7----8----8---8----9-----------|
E-]----------------------------------------------------------------------------|

    And just remember If you need me I'm here
E-]-----------------------------------------|----------------------------------|
B-]-----------------------------------------|----------------------------------|
G-]-----------------------------------------|-----5-----------5--5--5----2-----|
D-]-----------------------------------------|-----5-----------5--5--5----2-----|
A-]-----------------------------------------|-----3----0-0----3--3--3----0-----|
E-]-----------------------------------------|----------------------------------|
----------