#----------------------------------PLEASE NOTE--------------------------------#
#This file is the author's own work and represents their interpretation of the#
#song. You may only use this file for private study, scholarship, or research.#
#-----------------------------------------------------------------------------#
#-- File created with Instab - http://www.pconline.com/~smcarey/instab.html --#
#-----------------------------------------------------------------------------#

Author/Artist: Savatage
Title: Tonight He Grins Again
Album: Streets - A Rock Opera
Transcribed by: Matt Venuti
Email: tabs@savatage.com

This song is quite easy...basic power cords with a melody line.  
The fills take a little time to get the hang of, listen closely to the vibrato!


[0:08]                                                     last time before 
                                                           pre-chorus 
----------------------------------------------------------|-------------------
------------------10b12-10-8-7-7h8p7----------------------|-------------------
----------------------------------------------------------|-------------------
--------------------------------------------------4-------|-------------------
--5---4-2-4---------------------------7-7--5-5----2-------|-7-7--5-5----------
--3---2-0-2---------------------------5-5--3-3------------|-5-5--3-3--3v-2v---

                                                                              
[0:44]                               [0:55]  this is played under the previous
                                             part  
------------------------------------|-----------------------------------------
------------------------------------|-----------------------------------------
------------------------------------|-----------------------------------------
------4-5-4-4h5p4-------4-5-4-4h5p4-|-9-9-9-9--5-5-5-5/7----------------------
----7---------------3-7-------------|-7-7-7-7--3-3-3-3/5----------------------
--0---------------------------------|-----------------------------------------

                                                                              
[1:05]                      [1:10]  chorus
---------------------------|--------------------------------------------------
---------------------------|---13---12-10-------------------------------------
---------------------------|--------------12-11v--11/12-9---------------------
---4h5h7-7-5v4v------------|--------------------------------------------------
-5-------------------------|--------------------------------------------------
---------------5v-3v-2v-2v-|0-------------------------------------------------

                                                                              
[1:37]  Fill 1
------------------------------------------------------------------------------
------------------------------------------------------------------------------
---9b10-7/6----7-9b10p7-------------------------------------------------------
-------------9----------9-7-9-------------------------------------------------
------------------------------------------------------------------------------
------------------------------------------------------------------------------

                                                                              
[2:02]  Fill 2
--7-10-7-------------------------------------12--10--9b10-9-------------------
---------10-7-----------------------------------------------------------------
--------------9-7--------------9b10r9-----------------------------------------
------------------7/9--------9------------------------------------------------
------------------------------------------------------------------------------
------------------------------------------------------------------------------