#----------------------------------PLEASE NOTE---------------------------------#
#This file is the author's own work and represents their interpretation of the #
#song. You may only use this file for private study, scholarship, or research. #
#------------------------------------------------------------------------------#

================================================================================
         Title : Jesus Saves Solo
        Artist : Savatage
         Album : Streets
Transcribed by : Christian Randall CHVYMETL@aol.com
================================================================================

Legend
------

 h  = hammer-on
 p  = pull-off
 b  = bend
 r  = bend release
 /  = slide up/down
<5> = natural harmonic
[5] = artifical harmonic
 ~  = vibrato
 tr = trill





E|---------------|-----------12--14--15~~--14----/|--17p15--17b19----17p
B|--15b17--------|--15b17-------------------------|---------------------
G|---------------|--------------------------------|---------------------
D|---------------|--------------------------------|---------------------
A|---------------|--------------------------------|---------------------
E|---------------|--------------------------------|---------------------





E|--15--17b19--|----17p15--17b19--17b19----|------17b19------r17p15------
B|-------------|---------------------------|-------------------------17~~
G|-------------|---------------------------|-----------------------------
D|-------------|---------------------------|-----------------------------
A|-------------|---------------------------|-----------------------------
E|-------------|---------------------------|-----------------------------





E|------|----------------------------|----------------------------------
B|------|----------------------------|----------------------------------
G|------|--14p12h14p12----------/11--|----------------------------------
D|------|----------------------------|----------------------------------
A|------|----------------------------|----------7h9h10p9p7------7h9h10--
E|------|----------------------------|--7h9h10--------------10----------





E|------------------------------------------12--|----------------------
B|--------------------------------12h14h15------|------15--15--15--15--
G|------------------9h11p9h11h12----------------|----------------------
D|---------9h11h12------------------------------|----------------------
A|----/12---------------------------------------|----------------------
E|----------------------------------------------|----------------------





E|--------|--------15b17----15----------|--------------------------------
B|--------|-----------------------------|--------------------------------
G|--------|-----------------------------|--------------------------------
D|--------|-----------------------------|----------------------12h14h12--
A|--------|-----------------------------|------------12h14h15------------
E|--------|-----------------------------|--12h14h15----------------------





E|------|------------------------------------------------20b22------r(20)--
B|------|------------------------------------------------------------------
G|--16~~|------14--12------12--14b16~~----(14)rp12h14~~--------------------
D|------|--------------14--------------------------------------------------
A|------|------------------------------------------------------------------
E|------|------------------------------------------------------------------





E--------|----17--19--17--19--17--19b21------r19----|-------------------
B--------|------------------------------------------|------------13p12--
G--------|------------------------------------------|-------------------
D--------|------------------------------------------|-------------------
A--------|------------------------------------------|-------------------
E--------|------------------------------------------|-------------------





E|-------------------------------------------------|-------------------
B|------13-----------------------------------------|-------------------
G|--14------13p12--14p12/11--12p11------11---------|------------\------
D|----------------------------------14------14p12--|----14~~-----------
A|-------------------------------------------------|-------------------
E|-------------------------------------------------|-------------------



  Pick Slide      With Bar

E|----------------|-------------|-------------|-----------------------
B|----------------|-------------|------x------|------------15b17~~----
G|----------------|-------------|-------------|-----------------------
D|----------------|-------------|-------------|-----------------------
A|----------------|-------------|-------------|-----------------------
E|----------------|--0----------|-------------|-----------------------





E|--------|--12---------------|--
B|--------|--15b17------------|--
G|--------|-------------------|--
D|--------|-------------------|--
A|--------|-------------------|--
E|--------|-------------------|--