Tabulature for "An Angel Came Down"
Off the album "Christmas Eve and Other Stories"
Written by Trans-Siberian Orchestra

Transcribed by Andrew Wehrstedt Mr.Lycan@softhome.net

--------------------------------------------|---------------------------------
--------------------------------------------|---------------------------------
--------------------------------------------|---------------------------------
--------------------------------------------|---------------------------------
--------------------------------------------|---------------------------------
--------------------------------------------|---------------------------------
 An angel came down, one night to the earth   a mission from god, to find     

---------------|-------------------------------------------|------------------
---------------|-------------------------------------------|------------------
---------------|-------------------------------------------|------------------
---------------|-------------------------------------------|------------------
---------------|-------------------------------------------|------------------
---------------|-------------------------------------------|------------------
 out the worth   Of everything that, his children had done   Since that       

------------------------------------|-------------------------|---------------
------------------------------------|-------------------------|---------------
------------------------------------|-9----------9------------|-6-------------
------------------------------------|-9-----------------------|-6-------------
------------------------------------|-7------9-11-------------|-4-------------
------------------------------------|-0-----------------------|---------------
 winter night, the birth of His son                And then a   Sound filled  

-----|---------------|-------------|-----------------|--------------|---------
-----|---------------|-------------|-----------------|--------------|---------
-----|-2-------------|-4-----------|-----------------|-6------------|-2-------
-----|-2-------------|-4-----------|-2---------------|-6------------|-2-------
-----|-0-------------|-2-----------|-2---------------|-4------------|-0-------
-----|---------------|-------------|-0---------------|--------------|---------
 the   night, in the   cold winter   air, and in the   midst of his   flight, 

---------|--------------|------------------|--------------------|-------------
---------|--------------|------------------|--------------------|-------------
---------|-4------------|------------------|-6------------------|-2-----------
---------|-4------------|-2----------------|-6------------------|-2-----------
---------|-2------------|-2----------------|-4------------------|-0-----------
---------|--------------|-0----------------|--------------------|-------------
  it was   holding him    there. and as he   looked towards the   earth, for  

-----|---------------|----------------|-------------|----------------|--------
-----|---------------|----------------|-------------|----------------|--------
-----|-4-------------|----------------|-6-----------|-2--------------|-4------
-----|-4-------------|-2--------------|-6-----------|-2--------------|-4------
-----|-2-------------|-2--------------|-4-----------|-0--------------|-2------
-----|---------------|-0--------------|-------------|----------------|--------
 the   source of the   sound  on that   cold winter   night, it was           

-------------|--------|----------------------------------------------|--------
-------------|--------|----------------------------------------------|--------
-------------|--------|----------------------------------------------|--------
-------------|-2------|----------------------------------------------|--------
-------------|-2------|----------------------------------------------|--------
-------------|-0------|----------------------------------------------|--------
 pulling him   down     To bring something back, this angel was told   that   

-------------------------------------------|----------------------------------
-------------------------------------------|----------------------------------
-------------------------------------------|----------------------------------
-------------------------------------------|----------------------------------
-------------------------------------------|----------------------------------
-------------------------------------------|----------------------------------
 no one could touch, but angels could hold   So on that night, when the sky   

-------------|----------------------------------------|-----------------------
-------------|----------------------------------------|-----------------------
-------------|----------------------------------------|-9---------9-----------
-------------|----------------------------------------|-9---------------------
-------------|----------------------------------------|-7----9-11-------------
-------------|----------------------------------------|-0---------------------
 had cleared   among all the stars, an angel appeared           And then a    

------------------|----------------|------------|------------------|----------
------------------|----------------|------------|------------------|----------
-6----------------|-2--------------|-4----------|------------------|-6--------
-6----------------|-2--------------|-4----------|-2----------------|-6--------
-4----------------|-0--------------|-2----------|-2----------------|-4--------
------------------|----------------|------------|-0----------------|----------
 sound filled the   night, in the    cold winter air    and in the   midst    

--------|-----------------|--------------|------------------|-----------------
--------|-----------------|--------------|------------------|-----------------
--------|-2---------------|-4------------|------------------|-6---------------
--------|-2---------------|-4------------|-2----------------|-6---------------
--------|-0---------------|-2------------|-2----------------|-4---------------
--------|-----------------|--------------|-0----------------|-----------------
 of his   flight, it was    holding him    there, and as he   looked towards  

-----|----------------|---------------|-----------------|-------------|-------
-----|----------------|---------------|-----------------|-------------|-------
-----|-2--------------|-4-------------|-----------------|-6-----------|-------
-----|-2--------------|-4-------------|-2---------------|-6-----------|-------
-----|-0--------------|-2-------------|-2---------------|-4-----------|-------
-----|----------------|---------------|-0---------------|-------------|-------
 the   earth, for the   source of the   sound   on that   cold winter         

--------------|-------------|--------------|---------|-------|------|---------
--------------|-------------|--------------|---------|-------|------|---------
-2------------|-4-----------|--------------|---------|-4-----|------|-2-------
-2------------|-4-----------|-2------------|-2-------|-4-----|-2----|-2-------
-0------------|-2-----------|-2------------|-2-------|-2-----|-2----|-0-------
--------------|-------------|-0------------|-0-------|-------|-0----|---------
 night it was   pulling him   down           (acoustic strumming chords also) 

--|-------0---|--------|---------0--|------|-------|-------|------|-----------
--|---------0-|--------|-----------0|------|-------|-------|------|-----------
-2|-----------|-2------|-2----------|-4----|-------|-------|-4----|-9---------
-2|-2---------|-2------|-2----------|-4----|-2-----|-2-----|-4----|-9---------
-0|-2---------|-0------|-2----------|-2----|-2-----|-2-----|-2----|-7--9-11---
--|-0---------|--------|-0----------|------|-0-----|-0-----|------|-0---------
                                                                       And    

--------|------------------|---------------|-------------|--------------------
--------|------------------|---------------|-------------|--------------------
-9------|-6----------------|-2-------------|-4-----------|--------------------
--------|-6----------------|-2-------------|-4-----------|-2------------------
--------|-4----------------|-0-------------|-2-----------|-2------------------
--------|------------------|---------------|-------------|-0------------------
 then a   sound filled the   night, in the   cold winter   air   and in the   

--------------|----------------|-------------|------------------|-------------
--------------|----------------|-------------|------------------|-------------
-6------------|-2--------------|-4-----------|------------------|-6-----------
-6------------|-2--------------|-4-----------|-2----------------|-6-----------
-4------------|-0--------------|-2-----------|-2----------------|-4-----------
--------------|----------------|-------------|-0----------------|-------------
 midst of his   flight, it was   holding him   there  and as he   looked      

-------------|----------------|----------------|-----------------|------------
-------------|----------------|----------------|-----------------|------------
-------------|-2--------------|-4--------------|-----------------|-6----------
-------------|-2--------------|-4--------------|-2---------------|-6----------
-------------|-0--------------|-2--------------|-2---------------|-4----------
-------------|----------------|----------------|-0---------------|------------
 towards the   Earth, for the   source of this   sound   on that   cold       

--------|----------------|-----------------|----------------------------------
--------|----------------|-----------------|----------------------------------
--------|-2--------------|-4---------------|----------------------------------
--------|-2--------------|-4---------------|----------------------------------
--------|-0--------------|-2---------------|----------------------------------
--------|----------------|-----------------|----------------------------------
 winter   night   it was   pulling him....   down