Tabulature for "Boughs Of Holly"
Off the album "The Christmas Attic"
Written by Trans-Siberian Orchestra

Transcribed by Andrew Wehrstedt Mr.Lycan@softhome.net


I didn't TAB the lead near the intro because I haven't perfected
how Al plays it yet.  A really cool holiday song.

---------|---------|--------|-------------------|-----------------------------
---------|---------|--------|-------------------|-----------------------------
-7-------|-7-7-7---|-7------|-------------------|-----------------------------
-7-5-----|-7-7-7-5-|-7-5----|-12-10-9-7-5-7-9-5-|-7-9-10-7-9--7-5-4-5---------
-5-5-----|-5-5-5-5-|-5-5----|-------------------|-----------------------------
---3-----|-------3-|---3----|-------------------|-----------------------------
                                                                              

------------------|--------------------|--------------------------------------
------------------|--------------------|--------------------------------------
------------------|--------------------|--------------------------------------
-12-10-9-7-5-7-9-5|-7-9-10-7-9--7-5-4-5|-7-7-7-7--9-10-12-7--9-11-12--14-16---
------------------|--------------------|--------------------------------------
------------------|--------------------|--------------------------------------
                                                                              

------------|-------------------|---------------------------------------------
------------|-------------------|---------------------------------------------
------------|-------------------|---------------------------------------------
-17-16-14-12|-12-10-9-7-5-7-9-5-|-14-14-14-14-12-10-9-7-5---------------------
------------|-------------------|---------------------------------------------
------------|-------------------|---------------------------------------------
                                                                              

-----------------|------------------|---------------------|-------------------
-----------------|------------------|-15-13-12-10-8-7-8-10|-15-13-12-10-8-7---
-----------------|-5----7-----------|---------------------|-------------------
-5-5-5-5-5-5-5-5-|-5----7----5----7-|---------------------|-------------------
-5-5-5-5-5-5-5-5-|-3----5----5----7-|---------------------|-------------------
-3-3-3-3-3-3-3-3-|-----------3----5-|---------------------|-------------------
 Guitar Rhythm                                                                

-----|---------------------|--------------------------------------------------
-8-10|-15-13-12-10-8-7-8-10|-8------------------------------------------------
-----|---------------------|--------------------------------------------------
-----|---------------------|--------------------------------------------------
-----|---------------------|--------------------------------------------------
-----|---------------------|--------------------------------------------------
 Thats the whole song. Email me if you find anything to be wrong.