Tabulature for "Joy / Angels We Have Heard On High"
Off the album "The Christmas Attic"
Written by Trans-Siberian Orchestra

Transcribed by Andrew Wehrstedt Mr.Lycan@softhome.net

If you tune down a whole step you will be able to play along with the CD.




---------5-----7-5|---10-9-10--------0-2|-3-5-7-5-3-2-0-2--|-----------0-3-2--
-----5-7---8-8----|10---------10-7------|-----------------3|-2-3-5---2--------
---7--------------|----------------7----|------------------|-------2----------
-0----------------|---------------------|------------------|------------------
------------------|---------------------|------------------|------------------
------------------|---------------------|------------------|------------------
                                                                              

-0|-2---0-2-5-3-3-7-5-|----10-9-10----------2|-0-5-3-2-0--------|---2-5-10----
--|---3---------------|-10---------10-7-3-5--|-----------3---3-2|-3-----------
--|-------------------|----------------------|-------------2----|-------------
--|-------------------|----------------------|------------------|-------------
--|-------------------|----------------------|------------------|-------------
--|-------------------|----------------------|------------------|-------------
                                                                              

--------2-5|--14---15--15b----r15--14--14|-12----------12----12-15-14|-15-12--
-10-7-3----|-----------------------------|-------12-14----15---------|--------
-----------|-----------------------------|----14---------------------|--------
-----------|-----------------------------|---------------------------|--------
-----------|-----------------------------|---------------------------|--------
-----------|-----------------------------|---------------------------|--------
                                                                              

----------12-15-14-12|-14---15-15b--14|-12-14h15-14----12---|----14-12----17--
-14----14------------|----------------|-------------15----14|-15-------19-----
----14---------------|----------------|---------------------|-----------------
---------------------|----------------|---------------------|-----------------
---------------------|----------------|---------------------|-----------------
---------------------|----------------|---------------------|-----------------
                                                                              

-------19---|----22-21-22----------12-14|-15-17-19-17-15-14-12-14---|---------
-20-20----22|-22----------22-19---------|-------------------------15|-14-15---
------------|-------------------19------|---------------------------|---------
------------|---------------------------|---------------------------|---------
------------|---------------------------|---------------------------|---------
------------|---------------------------|---------------------------|---------
                                                                              

----------12-15-14-12|-14----12-14-17-15-15-19-17|----22-21-22----------------
-17----14------------|----15---------------------|-22----------22-17-15-17----
----14---------------|---------------------------|----------------------------
---------------------|---------------------------|----------------------------
---------------------|---------------------------|----------------------------
---------------------|---------------------------|----------------------------
                                                                              

-14|-12-17-15-14-12----|--------------|---------------------------------------
---|----------------15-|--14b14r------|---------------------------------------
---|-------------------|--------------|---------------------------------------
---|-------------------|--------------|---------------------------------------
---|-------------------|--------------|---------------------------------------
---|-------------------|--------------|---------------------------------------
                                                     (guitar leads)           

--14-14-14-17-15b17r15-14|-14-12-14-17-14-12---|-14-14b-14-17-15b17--15-------
-------------------------|-------------------15|------------------------------
-------------------------|---------------------|------------------------------
-------------------------|---------------------|------------------------------
-------------------------|---------------------|------------------------------
-------------------------|---------------------|------------------------------
                                                                              

-14b15r14b14r|-14-12-14-17-14-12---|-17-17b19r17-15-14-15-|-15b17r15-14-12----
-------------|-------------------15|----------------------|-------------------
-------------|---------------------|----------------------|-------------------
-------------|---------------------|----------------------|-------------------
-------------|---------------------|----------------------|-------------------
-------------|---------------------|----------------------|-------------------
                                                                              

-14|-14b15r14-12----12--17-15b17|-------14-15-14----12----|----14-12----17----
---|-------------15-------------|-15-17-------------------|-15-------19-------
---|----------------------------|-------------------------|-------------------
---|----------------------------|-------------------------|-------------------
---|----------------------------|-------------------------|-------------------
---|----------------------------|-------------------------|-------------------
                                                                              

-------19-17|----22-21-22----------12-14|-15-17-19-17-15-14-12-14---|---------
-20-20------|-22----------22-19---------|-------------------------15|-14-15---
------------|-------------------19------|---------------------------|---------
------------|---------------------------|---------------------------|---------
------------|---------------------------|---------------------------|---------
------------|---------------------------|---------------------------|---------
                                                                              

-12-------12-15-14-12|-14----12-14-17-15-15-19-17|----22-21-------------14----
-------14------------|----15---------------------|-22-------22-19-15-17-------
----14---------------|---------------------------|----------------------------
---------------------|---------------------------|----------------------------
---------------------|---------------------------|----------------------------
---------------------|---------------------------|----------------------------
                                                                              

--12-17-15-14-12----------------|---------------------------------------------
-----------------15----14b15r14-|--15-----------------------------------------
--------------------14----------|---------------------------------------------
--------------------------------|---------------------------------------------
--------------------------------|---------------------------------------------
--------------------------------|---------------------------------------------