Tabulature for "Midnight Christmas Eve"
Off the album "The Christmas Attic"
Written by Trans-Siberian Orchestra

Transcribed by Andrew Wehrstedt Mr.Lycan@softhome.net

------------------------|----------------------------------------|------------
------------------------|-10--10--10b10r-8--10-----11--11b--11-10|-10--10-----
------------------------|----------------------10----------------|------------
------------------------|----------------------------------------|------------
------------------------|----------------------------------------|------------
------------------------|----------------------------------------|------------
 (25 seconds no guitar)                                                       

--------------------------------|---------------------------------------------
-10b10r-8--10-----11--11b--11-10|-10--10--10b10r-8--10-----11--11b--11-10-----
--------------10----------------|----------------------10---------------------
--------------------------------|---------------------------------------------
--------------------------------|---------------------------------------------
--------------------------------|---------------------------------------------
                                                                              

-------------|----------------------------------------|-----------------------
-------------|-10---10--10b10r-8--10-----11--11b-11-10|-10--10-10b10r-8--10---
-------------|-----------------------10---------------|-----------------------
-------------|----------------------------------------|-----------------------
-------------|----------------------------------------|-----------------------
-------------|----------------------------------------|-----------------------
 (no guitar)                                                                  

--------------------|-------------------|------------------------|------------
------11--11b--11-10|-------------------|-------------5---5-6-5-6|-8-6-8-10---
-10-----------------|-------------------|-5-4-5-7-5-7---7--------|------------
--------------------|-------------------|------------------------|------------
--------------------|-------------------|------------------------|------------
--------------------|-------------------|------------------------|------------
                      (keyboard break)                                        

------7----7-8-7-8|-12-12-10-8-10-----12-12-12-10-8-10-/15-15|-12-12-10-8-10--
-8-10---10--------|---------------8--------------------------|----------------
------------------|------------------------------------------|----------------
------------------|------------------------------------------|----------------
------------------|------------------------------------------|----------------
------------------|------------------------------------------|----------------
                                                                              

---------------7-8-7------------7-8-7|-------------------------------7-8-10---
-8------7-8-10-----------7-8-10------|-----7-8-------7-8------7-8-10----------
----7-9--------------7-9-------------|-7-9-------7-9------7-9-----------------
-------------------------------------|----------------------------------------
-------------------------------------|----------------------------------------
-------------------------------------|----------------------------------------
                                                                              

------------------------------------|-----------------------------------------
-12-12-12b12r-10-12-----13-13b-13-12|-12-12-12b12r-10-12-----13-13b-13-12-----
--------------------12--------------|--------------------12-------------------
------------------------------------|-----------------------------------------
------------------------------------|-----------------------------------------
------------------------------------|-----------------------------------------
                                                                              

------------------------------------|-----------------------------------------
-12-12-12b12r-10-12-----13-13b-13-12|-12-12-12b12r-10-12----13-13b-13-12------
--------------------12--------------|--------------------12-------------------
------------------------------------|-----------------------------------------
------------------------------------|-----------------------------------------
------------------------------------|-----------------------------------------
                                      (play till end of song)                 

------------------------------------------------------------------------------
----10-12-------10-12------10-12-----10-12------------------------------------
-14---------14---------14---------14------------------------------------------
------------------------------------------------------------------------------
------------------------------------------------------------------------------
------------------------------------------------------------------------------
 (over-dub guitar.  plays riff for rest of the song)                          

-----15----15-------15----15-------15-----------------------------------------
-/15----15------/15----15------/15----15--------------------------------------
------------------------------------------------------------------------------
------------------------------------------------------------------------------
------------------------------------------------------------------------------
------------------------------------------------------------------------------
 (another overdubbed guitar)                                                  

------------------------------------------------------------------------------
-12---------------------------------------------------------------------------
--------9---------------------------------------------------------------------
-4----------------------------------------------------------------------------
-2------2---------------------------------------------------------------------
--------0---------------------------------------------------------------------
 (top notes are from the lead guitar)