Tabulature for "First Snow"
Off the album "Christmas Eve and Other Stories"
Written by Trans-Siberian Orchestra

Transcribed by Andrew Wehrstedt Mr.Lycan@softhome.net
      

-------5-----------5-----------3-----------5-----|-------5-----------5--------
-----7---7-------5---5-------3---3-------5---5---|-----7---7-------5---5------
---7-------7---6-------6---4-------4---6-------6-|---7-------7---6-------6----
-0-----------0-----------0-----------0-----------|-0-----------0-----------0--
-------------------------------------------------|----------------------------
-------------------------------------------------|----------------------------
 (electric and a 12-string acoustic)                                          

-----3-----------5--|------------------------------|--------------------------
---3---3-------5---5|------------------------------|-7-------7-------------7--
-4-------4---6------|-7---6---7-----4---6---7-7-6-7|-7---6---7-----4---6---7--
-----------0--------|-0-0-0-0-0-0-0-0-0-0-0-0-0-0-0|-0-0-0-0-0-0-0-0-0-0-0-0--
--------------------|------------------------------|--------------------------
--------------------|------------------------------|--------------------------
                        (one guitar)                                          

--|------------------------------|--------------------------|-----------------
-7|-7-------7-------------7-7---7|-7-------7-------------7-7|-7-------7-------
-7|-7---6---7-----4---6---7-7-6-7|-7---6---7-----4---6---7-7|-7---6---7-----4-
-0|-0-0-0-0-0-0-0-0-0-0-0-0-0-0-0|-0-0-0-0-0-0-0-0-0-0-0-0-0|-0-0-0-0-0-0-0-0-
--|------------------------------|--------------------------|-----------------
--|------------------------------|--------------------------|-----------------
        (two guitars)                                         (entire band    

--------------|--------------------------|---1-----1-------3-----3------------
-------7-7---7|-7-------7-------------7-7|-----1-----1-------3-----3-----0----
---6---7-7-6-7|-7---6---7-----4---6---7-7|-------2-----2-------4-----4-----2--
-0-0-0-0-0-0-0|-0-0-0-0-0-0-0-0-0-0-0-0-0|-3-------------5--------------------
--------------|--------------------------|-----------------------------0------
--------------|--------------------------|------------------------------------
 comes in   play these 2 bars 4 times  )                                      

---0-----3-2-0------|---1-----1-------3-----3--------------------|------------
-----0---------3---3|-----1-----1-------3-----3------------------|------------
-------2---------2--|-------2-----2-------4-----4---2-2-2-2-2-2-2|------------
-2------------------|-3-------------5---------------2-2-2-2-2-2-2|------------
--------------------|-------------------------------0-0-0-0-0-0-0|------------
--------------------|--------------------------------------------|------------
                                                                   (repeat    

------------------------------------------------|-----------------------------
------------------------------------------------|-----------------------------
------------------------------------------------|-7-----9--10-----------------
------------------------------------------------|-7-----9--10-----------------
------------------------------------------------|-5-----7--8--10-8-7-8-8-5-3--
------------------------------------------------|-----------------------------
 the song from the main riff first time through     (play 4 times)            

--|---------------|--------------------------|------5-------5-------|------5--
--|---------------|--------------------------|--------5---5---5---5-|---------
--|-2----------2--|--------------------------|----2-----2-------2---|----2----
--|-2-----5----2--|--------------------------|-5--2-----------------|-5--2----
-5|-0-----5----0--|--------------------------|-5--0-----------------|-5--0----
--|-------3-------|--------------------------|-3--------------------|-3-------
                    (play main riff 4 times)                                  

-------5------|--------5-------5---------2------------------------------------
-5---5---5---5|----------5---5---5---5---3------------------------------------
---2-------2--|-----2------2-------2-----2------------------------------------
--------------|-5---2--------------------0------------------------------------
--------------|-5---0---------------------------------------------------------
--------------|-3-------------------------------------------------------------
                                         (let each note ring for last chord)