Tabulature for "Blackjack Guillotine"
Off the album "The Wake Of Magellen"
Written by Savatage

Transcribed by Joachim "Jo" Weber jo@savatage.de

Intro, Riffs and Solo

tuning: drop D
m - mute
H - hammer
P - pull
~ - vibrato


Intro:

   -------------------------------------------------- 2x
e-]--------0---|-0---------|-------0-------|-------------|
B-]------6-----|---6-------|-----6---------|-------------|
G-].-7-7-------|-----7-----|-7-7-----------|------------.|
D-].-7---------|---------7-|-7-------------|-3-----5----.|
A-]--5---------|-------5---|-5-------------|-3-----5-----|
D-]--0---------|-----------|-0---------0-2-|-3-0-3-5-3-2-|
     | |_| | |   | | | |_|   | |_|_| | |_|   | |_| | |_|
                                 3     m m     m m   m m

e-]-----------0---|-0---------|-------0-------|-------------|
B-]---------6-----|---6-------|-----6---------|-------------|
G-]-----7-7-------|-----7-----|-7-7-----------|-------------|
D-]-----7---------|---------7-|-7-------------|-3-----5-----|
A-]-----5---------|-------5---|-5-------------|-3-----5-----|
D-]-3-2-0---------|-----------|-0---------0-2-|-3-0-3-5-3-2-|
    |_| |_|_| | |   | | | |_|   | |_|_| | |_|   | |_| | |_|
    m m   3                         3     m m     m m   m m

e-]--------0---|-0---------|-------0-------|-----------|
B-]------6-----|---6-------|-----6---------|-----------|
G-]--7-7-------|-----7-----|-7-7-----------|-----------|
D-]--7---------|---------7-|-7-------------|-3-----5---|
A-]--5---------|-------5---|-5-------------|-3-----5---|
D-]--0---------|-----------|-0---------0-2-|-3-0-3-5---|
     | |_| | |   | | | |_|   | |_|_| | |_|   | |_| | |
                                 3     m m     m m   

   slower... ring out
e-]-----------
B-]-----------
G-]-----------
D-]-----0-----
A-]-3-2-0-----
D-]-3-2-0-----
    | | | |  
 

Riffs:

    8x and then while verse
e-]------------------|--------------|   
B-]------------------|----------ring|    
G-].-----------------|-7---7---7---.|    
D-].--h-s-s-s-p------|-7---7---7---.|    
A-]--0-3-----7-0-----|-5---5---5----|   
D-]--0-3-4-5-7-0---0-|-0-0-0-0-0----|    
     |_| |_| |_| |_|   | |_| |_| |               
         m m       m     m     m

   ------- 7x-------                              ---only the 2nd time---
e-]-----------------|----------|-----------------|------------------|----|
B-]-----------------|----------|-----------------|------------------|----|
G-]-----------------|----------|-----------------|------------------|----|
D-]-----------------|----ring--|-----------------|--------------let ring-|
A-]-3-5-5-5-3-6-6-6-|-3-5------|-7---5-3-5-3-0---|-7---5-3-5-3-1----|----|
D-]-3-5-5-5-3-6-6-6-|-3-5------|-7---5-3-5-3-0---|-7---5-3-5-3-1----|----|
    |_| |_| |_| |_|   |_| | | |  |_| |_| |_| |_|   |_| |_| |_| |_|   ||||


   ------- 8x---------
e-]-------------------|
B-]-------------------|
G-].-----------------.|
D-].-----------------.|
A-]--0-3-4-5-0-3-4-5--|
D-]--0-3-4-5-0-3-4-5--|
     |_| |_| |_| |_|


   ----------------------------------------- play 2x and continue while solo
e-]------------------|-----------------|-----------------|------------------|
B-]------------------|-----------------|-----------------|-6----------------|
G-].---------5-------|---------5-------|---------5-------|---8-7-5-8-7-5---.|
D-].-----------8-7-5-|-----------8-7-5-|-----------8-7-5-|---------------8-.|
A-]--0-3-4-5---------|-0-3-4-5---------|-0-3-4-5---------|------------------|
D-]--0-3-4-5---------|-0-3-4-5---------|-0-3-4-5---------|------------------|
     |_| |_| |_| |_|   |_| |_| |_| |_|   |_| |_| |_| |_|   |_| |_| |_| |_|


Solo:

e-]-------|-------|-------|------|
B-]-15~~~~|-11~~~~|-10~~~~|-9~~~-|
G-]-14----|-10----|-9-----|-8----|bend G string until
D-]-------|-------|-------|------|it matches to the CD
A-]-------|-------|-------|------|
D-]-------|-------|-------|------|
    | |||   | |||   | |||   ||||   


e-]-21~~~~~~~~~~~~
B-]---------------
G-]---------------
D-]---------------
A-]---------------
D-]---------------


   -----------6 x----------- 
e-]H--H--P--P--H--H--P--P---|------------------------|
B-]-15-18-15-13-15-18-15-13-|-15-18-15-13-11-------~~|
G-].-----------------------.|----------------12-10-8-|
D-].-----------------------.|------------------------|
A-]-------------------------|------------------------|
D-]-------------------------|------------------------|
    |__|  |__|  |__|  |__|    |__|  |__|  |__|  |__|   

   -----------3 x-----------  H  H  P  P  H  H  P  P
e-]H--H--P--P--H--H--P--P---|-10-11-10-8--10-11-10-8-|
B-]-10-11-10-8--10-11-10-8--|------------------------|
G-].-----------------------.|------------------------|
D-].-----------------------.|------------------------|
A-]-------------------------|------------------------|
D-]-------------------------|------------------------|
    |__|  |__|  |__|  |__|    |__|  |__|  |__|  |__|   

   -----------2 x----------- H  P
e-]H--H--P--P--H--H--P--P---|-13-10H--P--------------|
B-]-10-11-10-8--10-11-10-8--|-------13-11H--P--------|
G-].-----------------------.|-------------12-10---~~~|
D-].-----------------------.|-------------------12---|
A-]-------------------------|------------------------|
D-]-------------------------|------------------------|
    |__|  |__|  |__|  |__|    |__|  |__|  |__|  |__|   

   -----------3 x-----------  H  H  P  P  H  H  P  P
e-]H--H--P--P--H--H--P--P---|-10-11-10-8--10-11-10-8-|
B-]-10-11-10-8--10-11-10-8--|------------------------|
G-].-----------------------.|------------------------|
D-].-----------------------.|------------------------|
A-]-------------------------|------------------------|
D-]-------------------------|------------------------|
    |__|  |__|  |__|  |__|    |__|  |__|  |__|  |__|   

e-]-15-13----13------------------------------------|
B-]-------15----15-13-15-13----13--------------~~~~|
G-]-------------------------15----15-14-15-14-12---|
D-]------------------------------------------------|
A-]------------------------------------------------|
D-]------------------------------------------------|
    |__|__|__|  |__|__|__|  |__|__|__|  |__|__|__|   

   ------------------8x-------------------
e-]---------------------------------------|
B-]-------------H--P--------------H--P----|
G-].----10-11----12-10----10-11----12-10-.|
D-].-12----------------12----------------.|
A-]---------------------------------------|
D-]---------------------------------------|
     |__|  |__|__|__|  |__|  |__|__|__|


   slide all notes from a lower position
e-]--------------|----------12-13----|-12-15-13- - - 
B-]-----------13-|-15-13-15----------|---------- - - repeat 3 times
G-].-12-14-15----|-------------------|---------- - - all in all
D-].-------------|-------------------|---------- - - you get
A-]--------------|-------------------|---------- - - 10 bars
D-]--------------|-------------------|---------- - - 
     |  |  |  |    |__|  |  |  |       |  |__| 


                              get slower              slide from lower position
e-]-15-13----13-------------|------------------------|------------- - -
B-]-------15----15-13-15-13-|----13--------------~~~~|------------- - -
G-]-------------------------|-15----15-14-15-14-12---|-15-14-13-12- - -
D-]-------------------------|------------------------|------------- - -
A-]-------------------------|------------------------|------------- - -
D-]-------------------------|------------------------|------------- - -
    |__|  |__|  |__|  |__|    |__|  |__|  |__|  |__|   |  |  |    


Sorry, havn't got the OUTRO :-(